Oops, an error
Loading. Please wait.

Pangarap Lang Kita tab

version 11
version 11

Whole song

Interactive

1,801 views 54 this week
no commentswrite comment
1 2 3 4 5
3 more votes to show rating
add to favorites
×
Save as Personal and add changes to this tab that will be seen only by you. Learn more ›
×
You can save this tab as Personal to edit and correct it or add notes. All changes will be seen only by you. Learn more »
launch autoscroll
font size
0
reset
how to read this tab
guitar tuner
edit
Autoscroll
slow
fast
+/-
esc
set tempo
stop
Author
Difficulty
About this tab version
This is the Vol. 2 version from Inuman Sessions feat. Yeng Constantino. Was this info helpful? Yes No
Watch the video tutorial for this tab on youtube:
https://youtu.be/Gt3HLKi01ZE


[Intro 1]

e|-------------------8---------------------------------------------------|
B|---------------------9-------------------------------------------------|
G|-----------------------8-8h10------------------------------------------|
D|-------6------8-10-----------------------------------------------------|
A|---6/8---8/10----------------------------------------------------------|
E|-----------------------------------------------------------------------|

e|-----------------------------------------------------------------------|
B|----------------------8-9-8--------------------------------------------|
G|--------------8-10--8-------8-8h10-------------------------------------|
D|-------6------8-10-----------------------------------------------------|
A|---6/8---8/10----------------------------------------------------------|
E|-----------------------------------------------------------------------|

e|----------------------------------11----8-9-8h9p8----------------------|
B|------------------------------8-9----11-----------9--------------------|
G|----------------------8--8-10------------------------------------------|
D|-------6------8--8h10--------------------------------------------------|
A|---6/8---8/10----------------------------------------------------------|
E|-----------------------------------------------------------------------|


[Verse 1]

e|-----------------------------------------------------------------------|
B|-----------------------------------------------------------------------|
G|-------1---0h1---0-1---------------------------------------------------|
D|-----3---3-----3-----3-------------------------------------------------|
A|---4-------------------------------------------------------------------|
E|-----------------------------------------------------------------------|

e|-----------------------------------------------------------------------|
B|---------------------1-------------------------------------------------|
G|-------1---0h1---0-1---------------------------------------------------|
D|-----3---3-----3-------------------------------------------------------|
A|---4-------------------------------------------------------------------|
E|-----------------------------------------------------------------------|

e|-----------------------------------------------------------------------|
B|-----------------------------------------------------------------------|
G|-------1---0h1---0-1---------------------------------------------------|
D|-----3---3-----3-----3-------------------------------------------------|
A|---4-------------------------------------------------------------------|
E|-----------------------------------------------------------------------|

e|----------------------4------------------------------------------------|
B|--------------------4---4----------------------------------------------|
G|-------1---0h1-0-1-----------------------------------------------------|
D|-----3---3-------------------------------------------------------------|
A|---4-------------------------------------------------------------------|
E|-----------------------------------------------------------------------|


[Verse 2]

e|-----------------------------------------------------------------------|
B|-----------------------------------------------------------------------|
G|-------1---0h1---0-1---------------------------------------------------|
D|-----3---3-----3-----3-------------------------------------------------|
A|---4-------------------------------------------------------------------|
E|-----------------------------------------------------------------------|

e|-----------------------------------------------------------------------|
B|---------------------1-------------------------------------------------|
G|-------1---0h1---0-1---------------------------------------------------|
D|-----3---3-----3-------------------------------------------------------|
A|---4-------------------------------------------------------------------|
E|-----------------------------------------------------------------------|

e|-------------------3--3-4-3-----------4--------------------------------|
B|----------------------------6-4-2-2/4----------------------------------|
G|-------1-----3—3-5-----------------------------------------------------|
D|-----3---3/5-----------------------------------------------------------|
A|---4-------------------------------------------------------------------|
E|-----------------------------------------------------------------------|


[Chorus 1]

You can just use power chords for this.
e|----4----6----8---8---8------------------------------------------------|
B|----4----6----9---8---9------------------------------------------------|
G|----6----8----10--10--10-----------------------------------------------|
D|----6----8----10--10--10-----------------------------------------------|
A|----4----6----8---8---8------------------------------------------------|
E|-----------------------------------------------------------------------|

e|----4----6------------------4----6----4----6---------------------------|
B|----4----6------------------4----6----4----6---------------------------|
G|----6----8----13-12-10-8----6----8----5----7---------------------------|
D|----6----8------------------6----8----6----8---------------------------|
A|----4----6----11-10-8--6----4----6----6----8---------------------------|
E|--------------------------------------4----6---------------------------|


[Intro 2]

e|--------------------------------------------------------6---5-6-5-5h6--|
B|-------------------------------10-11-10h11p10---------8---8------------|
G|-------------------------10-12----------------12-10-8------------------|
D|--------8-------10-10h12-----------------------------------------------|
A|---8/10---10/12--------------------------------------------------------|
E|-----------------------------------------------------------------------|


[Verse 3]

e|-----------------------------------------------------------------------|
B|-----------------------------------------------------------------------|
G|--------3---2/3---2/3--------------------------------------------------|
D|------5---5-----5-----5------------------------------------------------|
A|----6------------------------------------------------------------------|
E|-----------------------------------------------------------------------|

e|-----------------------------------------------------------------------|
B|----------------------3------------------------------------------------|
G|--------3---2/3---2/3--------------------------------------------------|
D|------5---5-----5------------------------------------------------------|
A|----6------------------------------------------------------------------|
E|-----------------------------------------------------------------------|

e|-----------------------------------------------------------------------|
B|-----------------------------------------------------------------------|
G|--------3---2/3---2/3--------------------------------------------------|
D|------5---5-----5-----5------------------------------------------------|
A|----6------------------------------------------------------------------|
E|-----------------------------------------------------------------------|

e|-----------------------6-----------------------------------------------|
B|---------------------6---6---------------------------------------------|
G|--------3---2/3-2-3----------------------------------------------------|
D|------5---5------------------------------------------------------------|
A|----6------------------------------------------------------------------|
E|-----------------------------------------------------------------------|


[Verse 4]

e|-----------------------------------------------------------------------|
B|-----------------------------------------------------------------------|
G|--------3---2/3---2/3--------------------------------------------------|
D|------5---5-----5-----5------------------------------------------------|
A|----6------------------------------------------------------------------|
E|-----------------------------------------------------------------------|

e|-----------------------------------------------------------------------|
B|----------------------3------------------------------------------------|
G|--------3---2/3---2/3--------------------------------------------------|
D|------5---5-----5------------------------------------------------------|
A|----6------------------------------------------------------------------|
E|-----------------------------------------------------------------------|

e|---------------------5--5-6-5-----------6------------------------------|
B|------------------------------8-6-4-4/6--------------------------------|
G|--------3-----5--5-7---------------------------------------------------|
D|------5---5/7----------------------------------------------------------|
A|----6------------------------------------------------------------------|
E|-----------------------------------------------------------------------|


[Chorus 2]

e|----6----8----10--10--10-----------------------------------------------|
B|----6----8----11--10--11-----------------------------------------------|
G|----8----10---12--12--12-----------------------------------------------|
D|----8----10---12--12--12-----------------------------------------------|
A|----6----8----10--10--10-----------------------------------------------|
E|-----------------------------------------------------------------------|

e|----6----8------------------6----8----6--------------------------------|
B|----6----8------------------6----8----6--------------------------------|
G|----8----10---15-14-12-10---8----10---7--------------------------------|
D|----8----10-----------------8----10---8--------------------------------|
A|----6----8----13-12-10-8----6----8----8--------------------------------|
E|--------------------------------------6--------------------------------|


[Guitar Solo]

e|-----------------------------------------------------------------------|
B|-----------------------------10----------------------------------------|
G|-----------------------10-12-------------------------------------------|
D|---------8-------10-12-------------------------------------------------|
A|----8/10---10/12-------------------------------------------------------|
E|-----------------------------------------------------------------------|

e|-----------------------------------------------------------------------|
B|----11-10h11p10--------------------------------------------------------|
G|----------------12—10h12-----------------------------------------------|
D|-------------------------10h12-----------------------------------------|
A|-----------------------------------------------------------------------|
E|-----------------------------------------------------------------------|

e|----10-11-10h11p10-------------10-----------12-------------------------|
B|-------------------11-------12-----------14----------------------------|
G|----------------------10-12--------12/14-------------------------------|
D|-----------------------------------------------------------------------|
A|-----------------------------------------------------------------------|
E|-----------------------------------------------------------------------|


[Guitar Solo Rhythm]

e|----6----8----10--10--10-----------------------------------------------|
B|----6----8----11--10--11-----------------------------------------------|
G|----8----10---12--12--12-----------------------------------------------|
D|----8----10---12--12--12-----------------------------------------------|
A|----6----8----10--10--10-----------------------------------------------|
E|-----------------------------------------------------------------------|

e|----6----8-------------------------------------------------------------|
B|----6----8----12----14-------------------------------------------------|
G|----8----10---12----14-------------------------------------------------|
D|----8----10---12----14-------------------------------------------------|
A|----6----8----10----12-------------------------------------------------|
E|-----------------------------------------------------------------------|


[Chorus 3]

e|----5----7----9---9---9------------------------------------------------|
B|----5----7----10--9---10-----------------------------------------------|
G|----7----9----11--11--11-----------------------------------------------|
D|----7----9----11--11--11-----------------------------------------------|
A|----5----7----9---9---9------------------------------------------------|
E|-----------------------------------------------------------------------|

e|----5----7------------------5----7----5--------------------------------|
B|----5----7------------------5----7----5--------------------------------|
G|----7----9----14-13-11-9----7----9----6--------------------------------|
D|----7----9------------------7----9----7--------------------------------|
A|----5----7----12-11-9--7----5----7----7--------------------------------|
E|--------------------------------------5--------------------------------|


[Outro]

e|----5----7----9---9---9------------------------------------------------|
B|----5----7----10--9---10-----------------------------------------------|
G|----7----9----11--11--11-----------------------------------------------|
D|----7----9----11--11--11-----------------------------------------------|
A|----5----7----9---9---9------------------------------------------------|
E|-----------------------------------------------------------------------|

e|----5--------------------------------9---------------------------------|
B|----5----------------------10-----10---10------------------------------|
G|----7--------------------9------9---------9----------------------------|
D|----7----9/11-9-7---9/11-----------------------------------------------|
A|----5------------------------------------------------------------------|
E|-----------------------------------------------------------------------|



************************************

| h  Hammer-on
| p  Pull-off
| /  Slide up

************************************

            
            
Suggest correction
Creating personal tab
Creating personal tab
You can edit any tab online and save it as your Personal.

You can edit, replace or remove any tab part or add personal notes – all changes will be seen only by you.

Personal tabs can be accessed anytime from any device, even offline.
Learn more »
Give kudos to tab author, rate the tab!
1 2 3 4 5
comments
print report bad tab
guest
You may want to rate the tab now too:
select rating
Wanna post a correction for this tab? Suggest correction