Oops, an error
Loading. Please wait.

Ran Tan Plan tab

19 views 1 this week
no commentswrite comment
1 2 3 4 5
3 more votes to show rating
add to favorites
×
Save as Personal and add changes to this tab that will be seen only by you. Learn more ›
×
You can save this tab as Personal to edit and correct it or add notes. All changes will be seen only by you. Learn more »
launch autoscroll
font size
0
reset
how to read this tab
guitar tuner
edit
Autoscroll
slow
fast
+/-
esc
set tempo
stop
  INTRO

  Dm           C
e|-----1---1--------0---0---------------------|
b|---3---3---3----1---1---1-------------------|
g|--2-2-2-2-2----0-0-0-0-0--------------------|
r|-0------------------------------------------|
a|--------------3-----------------------------|
e|--------------------------------------------|

e|-----01-3-1-0-1-----0---0-------------------|
b|---3--------------1---1---1-----------------|
g|--2-2------------0-0-0-0-0------------------|
r|-0------------------------------------------|
a|---------------3----------------------------|
e|--------------------------------------------|


        C                        Dm           
Quizás ya nada cambiará después
              C                    Dm        C
una gota de agua no puede volver a caer ya no hay más que hacer 
C                       Dm
solo irse con el tiempo

Quizás ya nada volverá y también
te persigan las palabras que no vas a recoger
te vas perdiendo dentro tuyo y dentro suyo también te perdés

Y una mañana azul un día como hoy un sendero un horizonte
cae la tarde cae el sol
caen sus manos en tu cuerpo una lagrima y cae el recuerdo

Nada más podría pasar nada más podrás hacer nada igual 
a aquellos días que dejaste en el ayer
nada enciende tu camino si nada has empezado quizás 
es por que no has terminado

Solamente un día solo un sueño como una canción de amor 
solo la melancolía solo está tu corazón 
solo buscas en tus días quien te escriba una canción 
nada cambia tu silencio, nada cambia para vos

Caminas caminos conocidos siempre vuelves a empezar 
paso a paso hacia su olvido vas dejando huellas
para no olvidar jamás quizás el tiempo te traiciona
quizás el tiempo quiera y tu no quieres olvidar

nada pasa y vas dejando años solo miras hacia atrás 
nada vuelve nada cambia y se acerca tu final
solo vives esos días que dejaste en el pasado dejas 
que te lleve el tiempo solo sabes recordar 

Solamente un día solo un sueño como una canción de amor 
solo la melancolía solo está tu corazón 
solo buscas en tus días quien te escriba una canción 
nada cambia tu silencio, nada cambia para vos


SI QUIEREN PUEDEN ARPEGIAR ESTA ES MAS O MENOS 
UNA BASE DEL ARPEGIO Q HACE
  Dm             C
e|-----1---1--------0---0---------------------|
b|---3---3---3----1---1---1-------------------|
g|--2-2-2-2-2----0-0-0-0-0--------------------|
r|-0------------------------------------------|
a|--------------3-----------------------------|
e|--------------------------------------------|

            
            
Suggest correction
Creating personal tab
Creating personal tab
You can edit any tab online and save it as your Personal.

You can edit, replace or remove any tab part or add personal notes – all changes will be seen only by you.

Personal tabs can be accessed anytime from any device, even offline.
Learn more »
Give kudos to tab author, rate the tab!
1 2 3 4 5
comments
print report bad tab
guest
Wanna post a correction for this tab? Suggest correction