Oops, an error
Loading. Please wait.

Submersible tab

13,485 views 3 this week
2 commentsread comments
1 2 3 4 5
x 6
add to favorites
×
Save as Personal and add changes to this tab that will be seen only by you. Learn more ›
×
You can save this tab as Personal to edit and correct it or add notes. All changes will be seen only by you. Learn more »
launch autoscroll
font size
0
reset
how to read this tab
guitar tuner
edit
Autoscroll
slow
fast
+/-
esc
set tempo
stop
Author
Song: Submersible
Band: Passafire
Album: Submersible
Tabbed by: O-52-A-50-R

Intro (Reverb Effect)

|------0-----0---2---2-4-----------------------------|
|--2-------------------5---0---4-----2---5p4-5p4-2---|
|----------------------------1-----------------------|
|----------2---2---2---------------------------------|
|4---4-----------------------------4---4-------------|
|----------------------------------------------------|

^2x

Verse (Don’t confuse the synthesized keyboard for the guitar. The guitar is in groups of 
on the off-beats)

|--------------------------------------|
|9-9-9-9-9-9-9-9-----------------------|
|9-9-9-9-9-9-9-9----------9--9--9--9---|
|----------------9-9-9-9-11-11-11-11---|
|----------------9-9-9-9---------------|
|--------------------------------------|

Chorus

|4-7-4-4-|
|4-9-4-4-|
|6-9-5-6-|
|6-9-6-6-|
|4-7-6-4-|
|4-7-4-4-|

Bridge (When you drown…)

|-----------------------------|
|9-9---10-10---7-7---12-10-10-|
|9-9----9--9---6-6---11--9--9-|
|-----------------------------|
|-----------------------------|
|-----------------------------|


|----------------------|
|9-9---9-9---10-10—--7-|
|9-9---9-9----9--9---6-|
|----------------------|
|----------------------|
|----------------------|

Solo

|7h9-7h9-7h9-7h9-7h9-7h9-7h9-7h9-7h9-7h9-7h9-|
|--------------------------------------------|
|--------------------------------------------|
|--------------------------------------------|
|--------------------------------------------|
|--------------------------------------------|

|--7-9/11p9-7-9-9---7-9/11p9-7-9-|
|9----------------9--------------|
|--------------------------------|
|--------------------------------|
|--------------------------------|
|--------------------------------|

|9---7-7---7-----------------|
|--9-----9---10-9-9-10-9-----|
|------------------------9-6-|
|----------------------------|
|----------------------------|
|----------------------------|

After-Solo Riff

|--------------------------|
|--------------------------|
|--------------------------|
|--------------------------|
|2h4-2h4-2h4-2h4p2-4p2-----|
|----------------------4p0-|

|4-4-9--4-4-|
|5-4-9--4-5-|
|6-6-11-6-6-|
|6-6-11-6-6-|
|4-4-9--4-4-|
|4-4-9--4-4-|

|----------------------------|
|----------------------------|
|/666666666666666666666666---|
|----------------------------|
|----------------------------|
|----------------------------|

Bass Solo

|4-|
|5-|
|6-|
|6-| (2x)
|4-|
|4-|

Keyboard Solo

|4-|
|5-|
|6-|
|6-| (2x)
|4-|
|4-|

Outro

|4-4-4-4-4-4-4-4-|
|5-5-5-5-4-4-5-5-|
|6-6-4-4-4-4-6-6-|
|6-6-6-6-6-6-6-6-| (Repeat as necessary)
|4-4-7-7-6-6-4-4-|
|4-4-4-4-4-4-4-4-|

            
            
Suggest correction
Creating personal tab
Creating personal tab
You can edit any tab online and save it as your Personal.

You can edit, replace or remove any tab part or add personal notes – all changes will be seen only by you.

Personal tabs can be accessed anytime from any device, even offline.
Learn more »
comments
print report bad tab
2 comments total.
+1 reply
ocmarkanthony 10 Oct 29, 2013 06:26 PM

verse & prechorus chords:
-4-4-7-7-4-4-4-4-
-5-5-9-9-4-4-5-5-
-6-6-9-9-4-4-6-6-
-6-6-9-9-6-6-6-6-
-4-4-7-7-6-6-4-4-
---------4-4-----

chorus (when you drown):
-7-7-5-5-2-2-7-5-5-
-9-9-5-5-2-2-7-5-5-
-9-9-6-6-2-2-8-6-6-
-9-9-7-7-4-4-9-7-7-
-7-7-7-7-4-4-9-7-7-
-----5-5-2-2-7-5-5-

0 reply
ocmarkanthony 10 Oct 29, 2013 06:26 PM

verse & prechorus chords:
-4-4-7-7-4-4-4-4-
-5-5-9-9-4-4-5-5-
-6-6-9-9-4-4-6-6-
-6-6-9-9-6-6-6-6-
-4-4-7-7-6-6-4-4-
---------4-4-----

chorus (when you drown):
-7-7-5-5-2-2-7-5-5-
-9-9-5-5-2-2-7-5-5-
-9-9-6-6-2-2-8-6-6-
-9-9-7-7-4-4-9-7-7-
-7-7-7-7-4-4-9-7-7-
-----5-5-2-2-7-5-5-

guest
You may want to rate the tab now too:
select rating
Wanna post a correction for this tab? Suggest correction