Oops, an error
Loading. Please wait.

Beautiful Birds chords

version 2
version 2

Whole song

15,378 views 99 this week
no commentswrite comment
1 2 3 4 5
x 7
add to favorites
×
Save as Personal and add changes to this tab that will be seen only by you. Learn more ›
×
You can save this tab as Personal to edit and correct it or add notes. All changes will be seen only by you. Learn more »
launch autoscroll
font size
0
reset
transpose
0
reset
simplify chords
display chords
guitar tuner
edit
Autoscroll
slow
fast
+/-
esc
set tempo
stop
Strumming
There is no strumming pattern for this song yet. and get +5 IQ
Capo 7
[Chords]
Dadd4 is like C   Dadd4
e|---------|
B|-1-----3-|
G|-0-----0-|
D|-2-----4-|
A|-3-----5-|
E|---------| 

[Intro]
(if too complicated for you to look into a tab then you can play Em C Dadd4 G 2x)
e|---3-2--0-------------------|---3-2--0-------------3-2--|---3-2--0------------------|-------------------3--|
B|------3------3------0-------|------3------3------3------|------3------3------0------|----1~3---3----0~1-0--|
G|---------------2-0-2---2-0--|----------------2--2-------|---------------2-0-2---2-0-|---0-----0----0-------|
D|------------2---0-----0-----|------------2-----0--------|------------2---0-----0----|--2-----4----0--------|
A|-----------3----------------|-----------3---------------|-----------3---------------|-3-----5--------------|
E|---0-----------------3------|---0-----------------------|---0-----------------3-----|------------3---------|

[Verse 1]
         Em    C       Dadd4       G
Do you remember when we were two beautiful birds we would
 EmC         D
light up the sky as we fly,
         Em    C       Dadd4       G     
You were orange in red like the sun when it sets,
       Am         G        D
i was green as an apple's eye

[Verse 2]
 Em C       Dadd4  G
You said you loved all the songs that I sing 
     Em  C     D
like nothing you’d ever heard
         Em    C       Dadd4       G
And said I loved you with all of my heart, When,
CDadd4          G
We were two beautiful birds

[Intro]
(slightly different) (if with chords its the same)         (this part)
e|---3-2--0-------------------|---3-2--0-------------3-2--|--7-5-3-0--3-2--3----3|-------------------3--|
B|------3------3------0-------|------3------3------3------|-----------0--3-----0-|----1~2---2----0~1-0--|
G|---------------2-0-2---2-0--|----------------2--2-------|---------------2---0--|---0-----0----0-------|
D|------------2---0-----0-----|------------2-----0--------|----------2--0--------|--2-----4----0--------|
A|-----------3----------------|-----------3---------------|---------3------------|-3-----5--------------|
E|---0-----------------3------|---0-----------------------|--0---------------3---|------------3---------|

[Verse 3]
  Em  C    Dadd4       G
remember when we were two beautiful birds?
          EmCD
we would sing when the morning will come,
         EmC    Dadd4 G
You are silver and blue like the moon when it’s new
       Am    D
I was gold as a summer sun,

[Verse 4]
Em    C     Dadd4     G
But one day you asked for a different song,
 Em  C           D
One that I just couldn’t sing,
           Em        C    Dadd4        G
I got the melody sharp and the words all wrong,
Am        G     D
  Those were the last days of spring,
      (Em   G)

[Verse 5]
Am   [ch[Em[/ch]           Em(E string will go to G like this |--0-2-3|)
  To build a nest we pecked feathers from our chests,
        G           D    
Like a book tearing out every page,       (Em   G)
Am   [ch[Em[/ch]           Em(E string will go to G like this |--0-2-3|)
We weren't to know that these feathers will grow
G        D
Into a beautiful cage

[Outro] 
e|---7---7---7-5-7-5-3-|--3-2--0-------------3-2-|---3-2--0------------------|------------------------3--|
B|----8---8------------|-----3------2------3-----|------3------3------0------|----1~3---3----0~1------0--|
G|-----------7---------|---------------2--2------|---------------2-0-2---2-0-|---0-----0----0------------|
D|-------0-------------|-----------2-----0-------|------------2---0-----0----|--2-----4----0-------------|
A|---------------------|----------3--------------|-----------3---------------|-3-----5-------------------|
E|---0-----------------|-------------------------|---0-----------------3-----|------------3--------------|

            
            
Suggest correction
Creating personal tab
Creating personal tab
You can edit any tab online and save it as your Personal.

You can edit, replace or remove any tab part or add personal notes – all changes will be seen only by you.

Personal tabs can be accessed anytime from any device, even offline.
Learn more »
comments
print report bad tab
guest
You may want to rate the tab now too:
select rating
Wanna post a correction for this tab? Suggest correction