Oops, an error
Loading. Please wait.
We have an official Let Her Go tab made by UG professional guitarists. Check out the tab »
×
56,023 views 42 this week
3 commentsread comments
1 2 3 4 5
x 25
add to favorites
×
Save as Personal and add changes to this tab that will be seen only by you. Learn more ›
×
You can save this tab as Personal to edit and correct it or add notes. All changes will be seen only by you. Learn more »
launch autoscroll
font size
0
reset
guitar tuner
backing track
0:00
0:00
edit
Autoscroll
slow
fast
+/-
esc
set tempo
stop
Author
Difficulty
Unregistered
This is not the exact song but hopefully it gives you an idea on how to play it!! 

There is a lot more hammer on's, pulloffs, slides etc to make it sound good but 
these sound like the correct base notes. 

[Intro]

G|------------------------------------------------------------------|
D|------10-10-10-12-14-14-12-12--------10-10-10-12-14-14-14-12------|
A|------------------------------------------------------------------|
E|------------------------------------------------------------------|


[Verse]

G|-------------------------------------------------------------------|
D|-------------------------------------------------------------------|
A|---7~--7--5~--3---5~---3----2--2~----------------------------------|
E|-------------------------------------------------------------------|

G|-------------------------------------------------------------------|
D|-------------------------------------------------------------------|
A|---7~--7--5~--3---0~---5--5-5--------------------------------------|
E|-------------------------------------------------------------------|


[Chorus]

G|------------------------------------------------------------------|
D|------------------------------------------------------------------|
A|---3---3-----------5---5---/---7---7--5---------------------------|
E|------------3---3-------------------------------------------------|

G|------------------------------------------------------------------|
D|------------------------------------------------------------------|
A|---3---3-----------0--5---5-5-------------------------------------|
E|------------3---3-------------------------------------------------|


[Outro]

G|--------------------------------------------------------------------|
D|--------------------------------------------------------------------|
A|---3~--------------5~---------7~------3~----------------5~----------|
E|------------3~------------------------------------3~----------------|


************************************

| /  Slide up
| ~  Vibrato

************************************

            
            
Suggest correction
Creating personal tab
Creating personal tab
You can edit any tab online and save it as your Personal.

You can edit, replace or remove any tab part or add personal notes – all changes will be seen only by you.

Personal tabs can be accessed anytime from any device, even offline.
Learn more »
comments
print report bad tab
3 comments total.
+1 reply
Col.British 10 Apr 19, 2013 06:27 PM

good tab only thing is in the verse its the 3rd fret not the 4th but other that that stop on

+1 reply
Col.British 10 Apr 19, 2013 06:28 PM

*spot on lol wrong way round :P

0 reply
Loerdmeister 10 Jul 21, 2015 03:59 AM

Lack of accuracy. T'was bad. And can you not force me to write at least 20 words about how bad the tabs was.

guest
Wanna post a correction for this tab? Suggest correction