Oops, an error
Loading. Please wait.
We have an official Let Her Go tab made by UG professional guitarists. Check out the tab »
×

Let Her Go intro tab

version 2
version 2

Intro

Whole song

187,467 views 618 this week
11 commentsread comments
1 2 3 4 5
x 340
add to favorites
×
Save as Personal and add changes to this tab that will be seen only by you. Learn more ›
×
You can save this tab as Personal to edit and correct it or add notes. All changes will be seen only by you. Learn more »
launch autoscroll
font size
0
reset
how to read this tab
guitar tuner
backing track
0:00
0:00
edit
Autoscroll
slow
fast
+/-
esc
set tempo
stop
e|-----0-------------------0------0---------------0--------0------------------3p0-------0---|
B|--3-----3--1-------1---------3-----3--1------1----3-3--3----3--1------1-----1-----1h3--1---|
G|--------------0h2--2--2-----------------0h2-----------------------0h2-2--2-----------------|
D|-------------------3----3---------------------------------------------3--------------------|
A|---------------------------------------------0-----------------------------------------0---|
E|-----------------------------3----------------------3--3--------------------------3--------|

e|-----0------------------0-------0---------------0--------0------------------3p0-------0---|
B|--3-----3--1-------1---------3-----3--1------1----3-3--3----3--1------1-----1-----1h3--1---|
G|--------------0h2--2--2-----------------0h2-----------------------0h2-2--2-----------------|
D|-------------------3--------------------------------------------------3--------------------|
A|---------------------------------------------0-----------------------------------------0---|
E|--3--------------------------3----------------------3--3--------------------------3--------|


*********************
|h     Hammer-on
*********************

            
            
Suggest correction
Creating personal tab
Creating personal tab
You can edit any tab online and save it as your Personal.

You can edit, replace or remove any tab part or add personal notes – all changes will be seen only by you.

Personal tabs can be accessed anytime from any device, even offline.
Learn more »
comments
print report bad tab
11 comments total. Showing first comments. show 1 bad comment
+6 reply
blazewing23 10 Nov 10, 2013 08:29 PM

pretty good, i think it sounds great

+8 reply
hedegaard.magnu 20 Dec 20, 2014 05:01 AM

i like the tab

guest
Wanna post a correction for this tab? Suggest correction