Oops, an error
Loading. Please wait.

Una Carta Al Cielo tab

59 views 1 this week
no commentswrite comment
1 2 3 4 5
3 more votes to show rating
add to favorites
×
Save as Personal and add changes to this tab that will be seen only by you. Learn more ›
×
You can save this tab as Personal to edit and correct it or add notes. All changes will be seen only by you. Learn more »
launch autoscroll
font size
0
reset
how to read this tab
guitar tuner
edit
Autoscroll
slow
fast
+/-
esc
set tempo
stop
Sería recomendable que antes de empezar a tocar, escucharan la canción
para saber en donde entrar y el momento exacto de los cambios, esta es
la versión original de los Pasteles Verdes.

Intro:

                 F               C     A°           G        D           G
E |-----------------------------------------------------------------------
A |-----------------------------------------------------------------------
D |-----------------------------------------------------------------------
g |-----------------------------------------------------------------------
b |-8---------8-6-8---------8--5--5--4--4------------3-----------7-----8--
e |---5-5^7-5-------5-7--5-----------------3--3^5--3----7--5--8-----5-----

                 F             C     A°           G        D           G
E |---------------------------------------------------------------------
A |---------------------------------------------------------------------
D |---------------------------------------------------------------------
g |---------------------------------------------------------------------
b |-8---------8-6-8-------8--5--5--4--4------------3-----------7-----8--
e |---5-5^7-5-------5-7-5----------------3--3^5--3----7--5--8-----5-----

E |--------------------
A |--------------#-----
D |---0------|0-#-----
g |----2-----|2-#-----
b |-----1----|1-#-----
e |------2---|2-#-----
              V  #

                   G                Am
Trayendo un pobre niño sujeto de la mano,
                   D                         G
se presentó al sargento un hombre en el cuartel...
               B7                    Em
¡el mundo está perdido!, le dijo acalorado...
                    A          Asus4         D
le traigo a este muchacho tan chico y por ladrón.

     D7         G                        Am
Cálmese y tome asiento, de mas está estrujarlo,
                       D                      G
¿que es lo que le ha robado?... dijo la autoridad,...
               F                    C
robó un ovillo de hilo en una de mis tiendas,
   A°         G        D           G
por eso castigarlo, merece sin piedad.

               F                    C
Robó un ovillo de hilo en una de mis tiendas,
   A°         G        D           G
por eso castigarlo, merece sin piedad.
                 Gm                   D7
La autoridad pregunta... dime carita sucia
                                        Gm
si es cierto lo que dice, ¡y deja de llorar!.

                                        D7
El niño le responde... es cierto mi sargento,
                                           Gm
robé un ovillo de hilo, para así hacer llegar
   G7          Cm-F                 Bb-Bbsus4-Bb
a mi blanca cometa hasta el azul del cielo,
                 D7              Gm     G7
allá donde se ha ido mi adorada mamá.

                 Cm     F             Bb-Bbsus4-Bb
¿No ven que hay una carta prendida en mi juguete?,
                D7                   Gm
perdónenme si en ella yo quise preguntar,
      G7         Cm                     Gm
?¿Porqué mamita linda?, ¿porqué te fuiste lejos?
             D7                 Gm     G7
dejándome tan solo con mi pobre papá?


                 Cm                      Gm
?¿Porqué mamita linda?, ¿porqué te fuiste lejos?
             D7                 Gm      G7
dejándome tan solo con mi pobre papá?


                 F             C     A°           G        D           G
E |-----------------------------------------------------------------------
A |-----------------------------------------------------------------------
D |-----------------------------------------------------------------------
g |-----------------------------------------------------------------------
b |-8----------8-6-8--------8--5--5--4--4------------3-----------7-----8--
e |---5-5^7-5--------5-7-5-----------------3--3^5--3----7--5--8-----5-----

E |--------------------
A |--------------#-----
D |---0------|0-#-----
g |----2-----|2-#-----
b |-----1----|1-#-----
e |------2---|2-#-----
              V  #


                 Gm                  D7
La autoridad pregunta... dime carita sucia
                                        Gm
si es cierto lo que dice, ¡y deja de llorar!.

                                       D7
El niño le responde... es cierto mi sargento
                                          Gm
robé un ovillo de hilo, para así hacer llegar
   G7         Cm-F                  Bb-Bbsus4-Bb
a mi blanca cometa hasta el azul del cielo,
                D7               Gm    G7
allá donde se ha ido mi adorada mamá.

                 Cm     F             Bb-Bbsus4-Bb
¿No ven que hay una carta prendida en mi juguete?,
                D7                   Gm
perdónenme si en ella yo quise preguntar...
      G7         Cm                     Gm
?¿Porqué mamita linda?, ¿porqué te fuiste lejos?
             D7                 Gm     G7
dejándome tan solo con mi pobre papá?

            Cm                           Gm
?¿Porqué mamita linda?, ¿porqué te fuiste lejos?
             D7
dejándome tan solo... con mi pobre papá..a..a....?


               Cm              Gm              D7            Gm
E |-----------------------------------------------------------------
A |-----------------------------------------------------------------
D |-----------------------------------------------------------------
g |----------------8-----------------7------------------------------
b |----------8---------------8-----8---8-----8----------------------
e |--8-8-6-5---5^6---8-8-6-5---5^6-------6-5---6-5-5-6-5-6-8-8/10---

     G7      Cm              Gm              D7            Gm
E |---------------------------------------------------------------
A |---------------------------------------------------------------
D |---------------------------------------------------------------
g |--------------8-----------------7------------------------------
b |--------8---------------8-----8---8-----8----------------------
e |--8-6-5---5^6---8-8-6-5---5^6-------6-5---6-5-5-6-5-6-8-8/10---

     G7      Cm              Gm              D7            Gm
E |---------------------------------------------------------------
A |---------------------------------------------------------------
D |---------------------------------------------------------------
g |--------------8-----------------7------------------------------
b |--------8---------------8-----8---8-----8----------------------
e |--8-6-5---5^6---8-8-6-5---5^6-------6-5---6-5-5-6-5-6-8-8/10---


Figuras de los acordes

Estos son algunos de los acordes que posiblemente resulten desconocidos
a algunos así que decidí agregarlos:


A°

|-----|-----|-----|-----|----E
|-----|-----|-----|-----|----A
|--I--|-----|-----|-----|----D
|-----|--A--|-----|-----|----g
|--M--|-----|-----|-----|----b
|-----|--m--|-----|-----|----e


Asus4

|-----|-----|-----|-----|----E
|-----|-----|-----|-----|----A
|-----|--I--|-----|-----|----D
|-----|--M--|-----|-----|----g
|-----|-----|--A--|-----|----b
|-----|-----|-----|-----|----e


Bb
   |
|--|--|-----|-----|-----|----E
|--|--|-----|-----|-----|----A
|--|--|-----|--M--|-----|----D
|--|--|-----|--A--|-----|----g
|--|--|-----|--m--|-----|----b
|--|--|-----|-----|-----|----e
   |


Bbsus4
   |
|--|--|-----|-----|-----|----E
|--|--|-----|-----|-----|----A
|--|--|-----|--M--|-----|----D
|--|--|-----|--A--|-----|----g
|--|--|-----|-----|--m--|----b
|--|--|-----|-----|-----|----e
   |

Pues bien, eso es todo, la canción no tiene un solo error,
espero les guste, puse mucho cuidado al transcribirla ya que
es una de las canciones que más me gustan y procuré que
estuviese impecable.

Cualquier duda o comentario pueden escribirme a mi correo:

edsel_rhl@

            
            
Suggest correction
Creating personal tab
Creating personal tab
You can edit any tab online and save it as your Personal.

You can edit, replace or remove any tab part or add personal notes – all changes will be seen only by you.

Personal tabs can be accessed anytime from any device, even offline.
Learn more »
Give kudos to tab author, rate the tab!
1 2 3 4 5
comments
print report bad tab
guest
Wanna post a correction for this tab? Suggest correction