Oops, an error
Loading. Please wait.

Gothika tab

18 views 1 this week
no commentswrite comment
1 2 3 4 5
3 more votes to show rating
add to favorites
×
Save as Personal and add changes to this tab that will be seen only by you. Learn more ›
×
You can save this tab as Personal to edit and correct it or add notes. All changes will be seen only by you. Learn more »
launch autoscroll
font size
0
reset
how to read this tab
guitar tuner
edit
Autoscroll
slow
fast
+/-
esc
set tempo
stop
pacozoe_pastilla@


  G         A        F       C        D
e--         e--      e--     e--    e--
b--         b--      b--     b--    b--
g--         g--      g--     g-5    g-7
D-5         D-7      D-3     D-5    D-7
A-5         A-7      A-3     A-3    A-5
e-3         e-5      e-1     e--    e--


G                        A
e------------------------------------------------
b------------------------------------------------
g------------------------------------------------
d-----2---------------2--------------------------   x 4
a-3-5--5-3-2------3-5---5-3-2--------------------
e------------------------------------------------


F
ahi esta tu sangre
C
ahi esta tu sangre
F
tus ojos tus abraazos
C
tus ojos tus abraazos
F
sal de tu arrepentimiento
C
sal de tu arrepentimiento
F
que yo casi ya no sientO
C
que yo casi ya no siento

G                        A
e------------------------------------------------
b------------------------------------------------
g------------------------------------------------
d-----2---------------2--------------------------   x 4
a-3-5--5-3-2------3-5---5-3-2--------------------
e------------------------------------------------

C
porque habra pasado
D
despues de tantos años
C
anduve volando
D
volando acostado
C
hay una navaja
D
que tiene mi nombre
C
te quedaste sola
D
cruzando los brazos


F
ahi esta tu sangre
C
ahi esta tu sangre
F
tus ojos tus abraazos
C
tus ojos tus abraazos
F
sal de tu arrepentimiento
C
sal de tu arrepentimiento
F
que yo casi ya no sientO
C
que yo casi ya no siento

F G A  G F
F G A  G F


G                        A
e------------------------------------------------
b------------------------------------------------
g------------------------------------------------
d-----2---------------2--------------------------   x 4
a-3-5--5-3-2------3-5---5-3-2--------------------
e-----------------------------------------------
C
te quedaste sola
D
cruando los brazos
C
anduve soñando
D
soñando despierto


F
ahi esta tu sangre
C
ahi esta tu sangre
F
tus ojos tus abraazos
C
tus ojos tus abraazos
F
sal de tu arrepentimiento
C
sal de tu arrepentimiento
F
que yo casi ya no sientO
C
que yo casi ya no siento

F G A  G F
F G A  G F

F           G
uhhhh uh uh uh

            
            
Suggest correction
Creating personal tab
Creating personal tab
You can edit any tab online and save it as your Personal.

You can edit, replace or remove any tab part or add personal notes – all changes will be seen only by you.

Personal tabs can be accessed anytime from any device, even offline.
Learn more »
Give kudos to tab author, rate the tab!
1 2 3 4 5
comments
print report bad tab
guest
Wanna post a correction for this tab? Suggest correction