Oops, an error
Loading. Please wait.

Generando tab

16 views 1 this week
no commentswrite comment
1 2 3 4 5
3 more votes to show rating
add to favorites
×
Save as Personal and add changes to this tab that will be seen only by you. Learn more ›
×
You can save this tab as Personal to edit and correct it or add notes. All changes will be seen only by you. Learn more »
launch autoscroll
font size
0
reset
how to read this tab
guitar tuner
edit
Autoscroll
slow
fast
+/-
esc
set tempo
stop
Em                            C
----------------------------------------------------
----------------------------------------------------
----------------------------------------------------
----------------------------------------------------
----------------------------------------------------
--0-0-0-0---0-0-0---0-0-0-0-0--8-8-8-8---8-8-8-8-8-8


---12]7--12]7--15-15-15-12]7-12]7-15-15-15-12-12-12]7
-----------------------------------------------------
-----------------------------------------------------
-----------------------------------------------------
-----------------------------------------------------
-----------------------------------------------------


12]7 = arrastrar la cuerda hasta el traste 7. (desde el 12)

Recomiendo hacer los acordes con arpegios normales:

Em
-----0-------0-------0------------------
---0---0--------0-------0-----------------
-0-------0-------0-------0----------------
---------------------------------
-2--------------------------------
-0--------------------------------


C

--------0-----0-----0----------------
------1---1-----1-----1----------------
----0-------0-----0-----0---------------
-----------------------------------
--3---------------------------------
----------------------------------

Em                   C
  .............vamos ya
Em     C
  ven acá
Em                     C
  saltá la barrera y vení
Em                      C
  soltá las amarras y vení

que vos podés
Em                   C
...............vamos ya
Em     C
sin temor
Em
 está dado el tiempo
      C
para que vos puedas ser
Em
  y si no te apuras
     C
crecerás.


B
 Antes de hacer
                 E
lo que quisieras en su momento
B               E
 antes de oir un sí
B
 antes de echar
                          E
la vieja herencia de tu cerebro
B              E
antes de ser feliz
                A
y si quisieras por una vez
             E
un mundo divertido
                     B
no importa lo que ha sido
                     E
y sí lo que pudiera ser.

(Em - C)

Vamos ya
ven acá
saltá la anestesia y vení
saltá la ignorancia y vení
que vos podés
vamos ya
sin temor
está dado el tiempo
para que vos puedas ver
y si no te dejan
morirás.


B
Generación...
                E
podés contar conmigo

B
Generación...
                E
podés contar conmigo

A
Generación...
                E
podés contar conmigo
               B
ayer hubo aburridos también
              E
pero eso fue ayer.


_________________________________________________________
Dedicado a la gente de Fusion de grupos de Pastoral!! :D
Gracias y espero que les haya gustado :)
Cualquier consulta a mi mail: 

Buscanos en FACEBOOK como:

PaStOrAL - (fusión de Grupos )

            
            
Suggest correction
Creating personal tab
Creating personal tab
You can edit any tab online and save it as your Personal.

You can edit, replace or remove any tab part or add personal notes – all changes will be seen only by you.

Personal tabs can be accessed anytime from any device, even offline.
Learn more »
Give kudos to tab author, rate the tab!
1 2 3 4 5
comments
print report bad tab
guest
Wanna post a correction for this tab? Suggest correction