Oops, an error
Loading. Please wait.

Improviso Y Hermoso chords

version 2
version 2

Whole song

25 views 1 this week
no commentswrite comment
1 2 3 4 5
3 more votes to show rating
add to favorites
×
Save as Personal and add changes to this tab that will be seen only by you. Learn more ›
×
You can save this tab as Personal to edit and correct it or add notes. All changes will be seen only by you. Learn more »
launch autoscroll
font size
0
reset
transpose
0
reset
simplify chords
display chords
guitar tuner
edit
Autoscroll
slow
fast
+/-
esc
set tempo
stop
Strumming
There is no strumming pattern for this song yet. and get +5 IQ
Ab Bb7 Db9 Ab x2

Ab
Besé tu vientre
Bb7
que después creció
Db9                   Ab
recosté mi cabeza sobre vos
Ab                            Bb7
me suspiraste un te amo tan genial
Db              Ab
 Te di silencio y nubes de calor
E        Db9             Ab
Jugamos tapados hasta el cuello
Ddim    Db9       Ab
mientras nos hacíamos el amor
         E    Db9       Ab
Nuestro engendro crecia gigante
Bb7     Db9       Ab
y un pequeño ser lo rompió.

Lloraste tanto y tanto te abracé
nenita frágil, con vos quise crecer
buscarte quiero en todas partes
existir en el tiempo por vos
sabiendo que el futuro nos trae
el producto de nosotros dos.
..Bb Db9 Ab
Ddim Db9 Ab
Ddim Db9 Ab
Ddim:
       1-----------------x
       2----------6-------
       3-----4------------
       4----------6-------
       5-------5----------
       6-----------------x
Db9
       1-----------------x
       2------4-----------
       3----------6-------
       4----------6-------
       5------4-----------
       6-----------------x
Ab
       1-----4------------
       2-----4------------
       3-------5----------
       4----------6-------
       5----------6-------
       6-----4------------
Bb7
       1-----6------------
       2-----6------------
       3--------7---------
       4-----6------------
       5----------8-------
       6-----6------------

En youtube hay dos versiones del mismo tema original una en A
y otra en Ab(me gusto esta) se les arma quilombo a los cantantes
que no tienen la practica de "adivinar" el tono
pero hay que escuchar un poquito nomas sin miedo

            
            
Suggest correction
Creating personal tab
Creating personal tab
You can edit any tab online and save it as your Personal.

You can edit, replace or remove any tab part or add personal notes – all changes will be seen only by you.

Personal tabs can be accessed anytime from any device, even offline.
Learn more »
Give kudos to tab author, rate the tab!
1 2 3 4 5
comments
print report bad tab
guest
Wanna post a correction for this tab? Suggest correction