Oops, an error
Loading. Please wait.

Libertad Pastoral tab

32 views 1 this week
no commentswrite comment
1 2 3 4 5
3 more votes to show rating
add to favorites
×
Save as Personal and add changes to this tab that will be seen only by you. Learn more ›
×
You can save this tab as Personal to edit and correct it or add notes. All changes will be seen only by you. Learn more »
launch autoscroll
font size
0
reset
how to read this tab
guitar tuner
edit
Autoscroll
slow
fast
+/-
esc
set tempo
stop
          D                               C

e-----10----------10-------    ----8-------8-----------
B--------10----------10----    -------8-------8--------
G-----------11----------11-    ---------9-------9------
D---0-----------0---------- x2 -------------8---------- x2
A--------------------------    ------------------------
E--------------------------    -7-8----------------------


                G

--3-----3--------5------3-----3----
----3-----3---3-----3-----3-----3--
------4-----4---------0-----0------
-----------------------------------
-----------------------------------
--3--------------3-----------------


                D

----5--3-2-3-2---2---------------2------
---------------5---5-3-5-3-2-3----3-----
-----------------------------------2----
--0---------------------------------0---
----------------------------------------
----------------------------------------

D                   C      G
 Tus cabellos se desploman
                    D
sobre una frente dormida
D                     C-G-D
 frente que vibrará herida
      C-G          D
por gotas de sentimiento.

D                      C
 Quisiste gritarle al viento,
     G             D
y tu voz no se escuchó
D                   C
 y corriendo por el campo,
   G              D
la gente te ha visto.

(leve aumento del tempo)

C              G     D
 Pequeña es la libertad
C         G    D
 ya no puede jugar
C              G     D
 pequeña es la libertad
C         G     D       C - G - C - G - D
 ya no puede jugar y vivir.

D                   C
 Que la llevan al molino
      G             D
y que le den mucho pán
D                   C
 pues ahora es chiquitita
       G          D
y ella no puede jugar.
      C  G     D -C- G - D
Ya no puede....jugar.

D                    C - G - D
 Si ves un gorrión volar
C             G    D
 no le tires de la cola - no, no, no, no
C   G     D
 déjalo volar
                          C
 que mientras el gorrión vuele
    G          D
volará mi libertad.
       C - G        D - C - G - D
Ya no puedeee... jugar.

SOLO DE FLAUTA base instrumental:
(D-C-G - D-C-G - D-C-G - D-C-G)

D             C
 Tómala de la mano
G                 D
y .....llévala al lado
       C-G          D
que el Sol los cubrirá
   C     G         D
la gente no molestará.

D                      C
 Cuando crezca y sea grande,
  G             D
ella podrá espantar
                C        G            D
a toda la gente mala que le quiere pegar.

C              G     D
 Pequeña es la libertad
C         G    D
 ya no puede jugar
C              G     D
 pequeña es la libertad
C         G     D
 ya no puede jugar.


_________________________________________________________
Dedicado a la gente de Fusion de grupos de Pastoral!! :D
Gracias y espero que les haya gustado :)
Cualquier consulta a mi mail: 

Buscanos en FACEBOOK como:

PaStOrAL - (fusión de Grupos )

            
            
Suggest correction
Creating personal tab
Creating personal tab
You can edit any tab online and save it as your Personal.

You can edit, replace or remove any tab part or add personal notes – all changes will be seen only by you.

Personal tabs can be accessed anytime from any device, even offline.
Learn more »
Give kudos to tab author, rate the tab!
1 2 3 4 5
comments
print report bad tab
guest
Wanna post a correction for this tab? Suggest correction