Oops, an error
Loading. Please wait.

Clouds chords

version 1
version 1

Whole song

Interactive

by Patrice
52,189 views 21 this week
1 commentread comment
1 2 3 4 5
x 9
add to favorites
×
Save as Personal and add changes to this tab that will be seen only by you. Learn more ›
×
You can save this tab as Personal to edit and correct it or add notes. All changes will be seen only by you. Learn more »
launch autoscroll
font size
0
reset
transpose
0
reset
display chords
guitar tuner
edit
Autoscroll
slow
fast
+/-
esc
set tempo
stop
Author
Unregistered
Strumming
There is no strumming pattern for this song yet. and get +5 IQ
[Intro]
  Am              G                 F               C
e|-----------------------------------------------------------------|
B|-----1-----------------0----------------1---------------1--------|
G|--2-----2-----------0-----0----------2-----2---------0-----0-----|
D|----------------------------------3------------------------------|
A|0-------------------------------------------------3--------------|
E|----------------3------------------------------------------------|

[Verse 1]
Am                G               F              C
I wrote this letter in my head
Am               G                F               C
I was too spaced out for you to reach me
Am              G                 F               C
I use to teach you not you teach me
Am              G                F               C
I never thought that you were gonna        realized
Am               G               F              C    
  what you had inside it's now a well surprise
  Am          G         F         C
I say my head is in the clouds
  Am           G             F            C
I say my head is in the clouds  but not to be precised.

[Chorus]
Am         G          F          C
The world is turning on
Am       G        F        C
and some things are
Am      G      F         C 
just the way  they are, they are
Am         G          F         C
The world is turning on
Am       G        F        C
and some things are
Am       G         F        C
just the way they, just the way they are.

[Verse 2]
I take the best words that come to my mind
the nicest melody that I can find
I write the greatest song that I can write

[Chorus]
Am         G          F          C
The world is turning on
Am       G        F        C
and some things are
Am      G      F         C 
just the way  they are, they are
Am         G          F         C
The world is turning on
Am       G        F        C
and some things are
Am       G         F        C
just the way they, just the way they are.

            
            
Suggest correction
Creating personal tab
Creating personal tab
You can edit any tab online and save it as your Personal.

You can edit, replace or remove any tab part or add personal notes – all changes will be seen only by you.

Personal tabs can be accessed anytime from any device, even offline.
Learn more »
comments
print report bad tab
1 comment total.
0 reply
r.djabri 10 Jul 28, 2015 12:52 PM, edited on November 15 2015, 04:18 pm

-----------------------------------------------------------------|
-----1-----------------0----------------1---------------1--------|
--2-----2-----------0-----0----------2--------------0-----0-----|
----------------------------------3-----------0-------------------|
0-------------------------------------------------3--------------|
----------------3------------------------------------------------|
ich denke so stimmts :)

guest
Wanna post a correction for this tab? Suggest correction