Oops, an error
Loading. Please wait.

Forget Me Nots bass

version 2
version 2

Whole song

Interactive

4,682 views 54 this week
no commentswrite comment
1 2 3 4 5
2 more votes to show rating
add to favorites
×
Save as Personal and add changes to this tab that will be seen only by you. Learn more ›
×
You can save this tab as Personal to edit and correct it or add notes. All changes will be seen only by you. Learn more »
launch autoscroll
font size
0
reset
guitar tuner
edit
Autoscroll
slow
fast
+/-
esc
set tempo
stop
Author
FORGET ME NOTS - Patrice Rushen
Tabbed by: 1woody1
E-mail: wout.lenders@gmail.com
Tuning: EADG

This whole song, except for the bridge is slapped, though works without slapping as well. 
I only put the marks on the first bar.

[Intro]
   S   P S S   P S   SS  S   SS S S S     S P S S   P S  S S S S S S  SS S S S
G|-------------7------------------------|-----------7--------------------------|
D|-----4----------------------------2h4-|---4------------4-6-4-6-4-6-------2-4-|
A|-------2-5-----5---57--7\--24-4-4-----|-----2-5-----5---------------24-4-----|
E|-0h2----------------------------------|-2------------------------------------|

G|-----------7------------------------|-----------7-------------------------------|
D|---4----------------------------2h4-|---4------------4-6-4-6-4-6------2---4-2---|
A|-----2-5-----5---57--7\--24-4-4-----|-----2-5-----5---------------24----4-----4-|
E|-2----------------------------------|-2-----------------------------------------|

[Verse]
G|-----------7------------------------|-----------7-------------------------------|
D|---4----------------------------2h4-|---4------------4-6-4-6-4-6------2---4-2---|
A|-----2-5-----5---57--7\--24-4-4-----|-----2-5-----5---------------24----4-----4-|
E|-2----------------------------------|-2-----------------------------------------|

G|-----------7------------------------|-----------7--------------------------|
D|---4----------------------------2h4-|---4------------4-6-4-6-4-6-------2-4-|
A|-----2-5-----5---57--7\--24-4-4-----|-----2-5-----5---------------24-4-----| 
E|-2----------------------------------|-2------------------------------------|

G|-----------7------------------------|-----------7-------------------------|
D|---4----------------------------2h4-|---4------------4-6-4-6-4-6----------|
A|-----2-5-----5---57--7\--24-4-4-----|-----2-5-----5---------------24-4-4--| 
E|-2----------------------------------|-2-----------------------------------|

[Chorus]
G|---7----------------------------|----------------------------------|
D|----------------------------2h4-|---4---------2h4-4----------------|
A|-5---5-5-----57--7\--24-4-4-----|----------------------------------| x3
E|--------------------------------|-2---2-2--------2-2-4-5---04-2----|

G|---7----------------------------|----------------------------------|
D|----------------------------2h4-|---4---------2h4------------------|
A|-5---5-5-----57--7\--24-4-4-----|----------------------------------|
E|--------------------------------|-2---2-2--------2-2-2-2---2/(16)\-|

[Verse 2]
G|-----------7------------------------|-----------7--------------------------|
D|---4----------------------------2h4-|---4------------4-6-4-6-4-6-------2-4-|
A|-----2-5-----5---57--7\--24-4-4-----|-----2-5-----5---------------24-4-----| 
E|-2----------------------------------|-2------------------------------------|

G|-----------7------------------------|-----------7-------------------------------|
D|---4----------------------------2h4-|---4------------4-6-4-6-4-6------2---4-2---|
A|-----2-5-----5---57--7\--24-4-4-----|-----2-5-----5---------------24----4-----4-|
E|-2----------------------------------|-2-----------------------------------------|

G|-----------7------------------------|-----------7------------------4h5-2---------|
D|---4----------------------------2h4-|---4------------4-6-4-6-4-6---------4h6p4h6-|
A|-----2-5-----5---57--7\--24-4-4-----|-----2-5-----5------------------------------|
E|-2----------------------------------|-2------------------------------------------|

G|-----------7------------------------|-----------7-------------------------|
D|---4----------------------------2h4-|---4------------4-6-4-6-4-6----------|
A|-----2-5-----5---57--7\--24-4-4-----|-----2-5-----5---------------24-4-4--| 
E|-2----------------------------------|-2-----------------------------------|

[Chorus]
G|---7----------------------------|----------------------------------|
D|----------------------------2h4-|---4---------2h4-4----------------|
A|-5---5-5-----57--7\--24-4-4-----|----------------------------------| x3
E|--------------------------------|-2---2-2--------2-2-4-5---04-2----|

G|---7----------------------------|-------------------------4h5h4-2---|
D|----------------------------2h4-|---4---------2h4-----------------4-|
A|-5---5-5-----57--7\--24-4-4-----|-----------------------------------| 
E|--------------------------------|-2---2-2--------2-2-2-2------------|

[Verse 3]
G|-----------7------------------------|-----------7--------------------------|
D|---4----------------------------2h4-|---4------------4-6-4-6-4-6-------2-4-|
A|-----2-5-----5---57--7\--24-4-4-----|-----2-5-----5---------------24-4-----| 
E|-2----------------------------------|-2------------------------------------|

G|-----------7------------------------|-----------7-------------------------------|
D|---4----------------------------2h4-|---4------------4-6-4-6-4-6------2---4-2---|
A|-----2-5-----5---57--7\--24-4-4-----|-----2-5-----5---------------24----4-----4-|
E|-2----------------------------------|-2-----------------------------------------|

G|-----------7--7----------------------|-----------7-------------------------------|
D|---4-----------------------------2h4-|---4------------4-6-4-6-4-6------2---4-2---|
A|-----2-5----55-55--7--7\--24-4-4-----|-----2-5-----5---------------24----4-----4-|
E|-2-----------------------------------|-2-----------------------------------------|

G|-----------7------------------------|-----------7--------------------------|
D|---4----------------------------2h4-|---4------------4-6-4-6-4-6-------2-4-|
A|-----2-5-----5---57--7\--24-4-4-----|-----2-5-----5---------------24-4-----| 
E|-2----------------------------------|-2------------------------------------|

[Bridge]
G|---------------|---------------------------------------------------------|
D|-2-------------|------2-----------2---------2-2-----2----------2---------|
A|---------------|-------2-----------2-----------2-----2----------2--------|
E|---------------|-3-0----0-0--3------0-0--3------0-----0-0-3------0-0-3---|
     only drums   

[Solo]
G|------------7------------------------|-----------7--------------------------|
D|-2h4-----------------------------2h4-|---4------------4-6-4-6-4-6-------2-4-|
A|------2-5-----5---57--7\--24-4-4-----|-----2-5-----5---------------24-4-----| 
E|-------------------------------------|-2------------------------------------|

G|-----------7------------------------|-----------7-------------------------------|
D|---4----------------------------2h4-|---4------------4-6-4-6-4-6------2---4-2---|
A|-----2-5-----5---57--7\--24-4-4-----|-----2-5-----5---------------24----4-----4-|
E|-2----------------------------------|-2-----------------------------------------|

[Verse]
G|------------7------------------------|-----------7--------------------------|
D|-2h4-----------------------------2h4-|---4------------4-6-4-6-4-6-------2-4-|
A|------2-5-----5---57--7\--24-4-4-----|-----2-5-----5---------------24-4-----| 
E|-------------------------------------|-2------------------------------------|

G|------------7------------------------|-----------7------------------4h5-2---------|
D|-2h4-----------------------------2h4-|---4------------4-6-4-6-4-6---------2h4h2h4-|
A|------2-5-----5---57--7\--24-4-4-----|-----2-5-----5---------------x--------------| 
E|-------------------------------------|-2------------------------------------------|

G|------------7------------------------|-----------7--------------------------|
D|-2h4-----------------------------2h4-|---4------------4-6-4-6-4-6-------2-4-|
A|------2-5-----5---57--7\--24-4-4-----|-----2-5-----5---------------24-4-----| x2
E|-------------------------------------|-2------------------------------------|

G|-----------7------------------------|-----------7-------------------------------|
D|---4----------------------------2h4-|---4------------4-6-4-6-4-6------2---4-2---|
A|-----2-5-----5---57--7\--24-4-4-----|-----2-5-----5---------------24----4-----4-|
E|-2----------------------------------|-2-----------------------------------------|

G|-----------7--7----------------------|-----------7------------------4h5-2---------|
D|---4-----------------------------2h4-|---4------------4-6-4-6-4-6---------2h4h2h4-|
A|-----2-5----55-55--7--7\--24-4-4-----|-----2-5-----5---------------x--------------| 
E|-2-----------------------------------|-2------------------------------------------|

G|------------7------------------------|-----------7--------------------------|
D|-2h4-----------------------------2h4-|---4------------4-6-4-6-4-6-------2-4-|
A|------2-5-----5---57--7\--24-4-4-----|-----2-5-----5---------------24-4-----|
E|-------------------------------------|-2------------------------------------|

Fade out

************************************

| h  Hammer-on
| \  Slide down
| P  Pop
| p  Pull-off
| x  Dead note

************************************

            
            
Suggest correction
Creating personal tab
Creating personal tab
You can edit any tab online and save it as your Personal.

You can edit, replace or remove any tab part or add personal notes – all changes will be seen only by you.

Personal tabs can be accessed anytime from any device, even offline.
Learn more »
Give kudos to tab author, rate the tab!
1 2 3 4 5
comments
print report bad tab
guest
You may want to rate the tab now too:
select rating
Wanna post a correction for this tab? Suggest correction