Oops, an error
Loading. Please wait.

Aprender A Volar tab

187 views 1 this week
no commentswrite comment
1 2 3 4 5
3 more votes to show rating
add to favorites
×
Save as Personal and add changes to this tab that will be seen only by you. Learn more ›
×
You can save this tab as Personal to edit and correct it or add notes. All changes will be seen only by you. Learn more »
launch autoscroll
font size
0
reset
how to read this tab
guitar tuner
edit
Autoscroll
slow
fast
+/-
esc
set tempo
stop
ADVERTENCIA! La letra  "e" que aparece
arriba de las tablaturas
a la par de la letra "Q" "S" "H"
y toda esa fila de letras,
NO implica el acorde E sino Eight Note (Corchea).
Los acordes estan arriba de los valores de tiempo.
Si esta el acorde C/E. No confundir.

Estan los acordes mas comunos a todos y abajo
de la cancion puse algunos mas inusuales.

                              F/C  Bb/F C
     H        Q    S S S S    Q    Q    Q    S S S S
E||----------------------3-|--5----6----3----L-------|
B||--------------------6---|--6----6----5----L---3-5-|
G||------------------5-----|--3----7----5----L-5-----|
D||------------------------|--5----8----5----L-L-----|
A||------------------------|--3---------3----L-L-----|
E||------------------------|-------8-----------------|


  C#dim          Dm7     F/C      Bb                   F/A
                                      |--3-| |---3--|
  e     e  e  e  Q    e  S   S    e.  T T  T e  e   e  e   e  e  e
-----------5-------------------|-------------6--8--10--8------5-----|
--L-----------5--6----L--6---5-|--------6-10-----------6---6-----6--|
-----------------5----L--5-----|--7---7----------------5------------|
--------5--L-----7----L--7-----|--8--------------------7------------|
--4--------------5----L--------|--8--------------------0------------|
-------------------------8-----|--6---------------------------------|


  Gm11          Csus4            F       Bb/F
                                                  T  T   T   T
                                              |-----3----|
  E    E  E  E  E     E  Q       Q    E  E    E      E   E   E  S S
------------------------------|-------1----------15g17--15--13----1-|
-------------1--6--------5----|--1----L--3----L-----------------L---|
--3-------3-----5-------------|--2----L--3-------15g17--15--14------|
-------3--------------3-------|--3----L--3----L-----------------L---|
----------------3-------------|-------------------------------------|
--3---------------------------|--1----L--1----L-----------------L---|


  F        Bb/F
  E  E  E  E    H
--------1----------------||
--1--------3----L--------||
--2--------3----L--------||
-----3-----3----L--------||
-------------------------||
--1--------1----L--------||


F               C/E   Dm               C
Duro es el camino     y se que no es facil
Bb                 F/A       Gm       Csus4 C
no se si habrá tiempo para descansar
F              C/E     Dm             C
en esta aventura        de amor y coraje
Bb              F/A              Gm           Csus4 C
solo hay que cerrar los ojos y echarse a volar

   Gm                               C
y cuando el corazon galope fuerte, déjalo salir
     Gm               F/A                    Bb          C
no existe la razon que venza la pasión, las ganas de reir


          F (C/F)         Gm
Puedes creer,   puedes soñar
          A5    F5    G5 A5           C  C#dim
abre tus alas,    aqui esta tu libertaaaaaad
      Dm                C
y no pierdas tiempo, escucha al viento
    Bb               Bdim
canta por lo que vendrá
             F          Gm    C      F
no es tan dificil que aprendas a voooolar

F           C/E  Dm            C
No pierdas la fe, no pierdas la calma
Bb              F/A          Gm       Csus4 C
aunque a veces este mundo no pide perdon
F                   C/E  Dm            C
 grita aunque te duela,  llora si hace falta
Bb              F/A       Gm        Csus4 C
   limpia las heridas que cura el amor

   Gm                               C
y cuando el corazon galope fuerte, déjalo salir
     Gm               F/A                    Bb          C
no existe la razon que venza la pasión, las ganas de reir

          F (C/F)         Gm
Puedes creer,   puedes soñar
          A5    F5    G5 A5           C  C#dim
abre tus alas,    aqui esta tu libertaaaaaad
      Dm                C
y no pierdas tiempo, escucha al viento
    Bb               Bdim
canta por lo que vendrá
             F          Gm    C      F
no es tan dificil que aprendas a voooolar


       Y no apures el camino al fin
     S S   S S Q    S S S S S S S   S
E||-----------------------------------|
B||-----------------------------------|
G||--6-6---5-6------------------------|
D||--6-6---5-6------------3-----------|
A||--4-4---3-4----------4---6-4-3-----|
E||-------------------4-------------4-|


 todo llegará
  S  S S S E.  S S  S  S  S  S S  S S
--------------------------------------|
--------------------------------------|
--------------------------------------|
--3--3-2-3-----8-8-10-10-10-10---10---|
--3--3-2-3-----6-6--8--8--8--8----8---|
--1--1-0-1----------------------------|


       cada luz, cada mañana
     S S   S S Q    S S S S S S S   S
E||-----------------------------------|
B||-----------------------------------|
G||--6-6---5-6------------------------|
D||--6-6---5-6------------3-----------|
A||--4-4---3-4----------4---6-4-3-----|
E||-------------------4-------------4-|


Gm                   C
todo espera en su lugar


          F (C/F)         Gm
Puedes creer,   puedes soñar
          A5    F5    G5 A5           C  C#dim
abre tus alas,    aqui esta tu libertaaaaaad
      Dm                C
y no pierdas tiempo, escucha al viento
    Bb               Bdim
canta por lo que vendrá
             F          Gm    C      F
no es tan dificil que aprendas a voooolar


Aquí les paso 4 acordes del tema que talvez no todos conozcan
y les doy 3 opciones por cada acorde para que elijan a su gusto.


          C/E                     C#dim                  Bdim
E||-----------------------|-------------6--------|------------4------|
B||--5----13-----8--------|--5-----8----5--------|--3----6----3------|
G||--5----12-----9--------|--3-----9----6--------|--1----7----4------|
D||--5----10----10--------|--5-----8----5--------|--3----6----3------|
A||--7-----------7--------|--4-------------------|--2----------------|
E||-------12--------------|--------9-------------|-------7-----------|


      F/A
----------------------||
--10----6----1--------||
--10----5----2--------||
--10----3----3--------||
--12---------0--------||
--------5-------------||

      C/F
------8--------||
--5---8--------||
--5---9--------||
--5---10-------||
--3---8--------||
--1------------||


Duracion
---------------
W - whole - Redonda
H - half - Blanca
Q - quarter - Negra
E - 8th - Corchea
S - 16th - Semi Corchea
T - 32nd - Fusa
X - 64th - Semi Fusa
. - note dotted - Puntillo
|-n-|  - n-tuplets - Tresillo, Seisillo.
La "n" marca que es, si  dice |--3--| sera tresillo.
T - Tapping
[C/F] - Entre parentesis implica que puede ser
tocada o no, en realidad esta nota la toca el teclado.

            
            
Suggest correction
Creating personal tab
Creating personal tab
You can edit any tab online and save it as your Personal.

You can edit, replace or remove any tab part or add personal notes – all changes will be seen only by you.

Personal tabs can be accessed anytime from any device, even offline.
Learn more »
Give kudos to tab author, rate the tab!
1 2 3 4 5
comments
print report bad tab
guest
Wanna post a correction for this tab? Suggest correction