Oops, an error
Loading. Please wait.

Barba Azul Vs. El Amor Letal tab

version 1
version 1

Whole song

268 views 1 this week
no commentswrite comment
1 2 3 4 5
3 more votes to show rating
add to favorites
×
Save as Personal and add changes to this tab that will be seen only by you. Learn more ›
×
You can save this tab as Personal to edit and correct it or add notes. All changes will be seen only by you. Learn more »
launch autoscroll
font size
0
reset
how to read this tab
guitar tuner
edit
Autoscroll
slow
fast
+/-
esc
set tempo
stop
Estilo de Rasguido en la INTRO: (escuchar la cancion)

LOS ACORDES QUE TENGAN * (ejemplo REM*) SE TOCAN NORMAL

          SIm                        FA#m
1|-----------7---------|-----------2---------2-----|
2|-----------7---------|-----------2---------2-----|
3|-----------7-7-9-9-7-|-----------2-----2---2-----|
4|-9-9-9-9-9---7-9-9-7-|-4-4-4-4-4---------4---2-0-|
5|-9-9-9-9-9-----------|-4-4-4-4-4---2h4-----------|
6|-7-7-7-7-7-----------|-2-2-2-2-2-----------------|


          LAm                     MIm
1|-----------5---------|-----------0-------0-0-|
2|-----------5---------|-----------0-------0-0-|
3|-----------5-5-7-7-5-|-----------0-------0-0-|
4|-7-7-7-7-7---5-7-7-5-|-2-2-2-2-2---2-2-2-----|
5|-7-7-7-7-7-----------|-2-2-2-2-2---2-2-2-----|
6|-5-5-5-5-5-----------|-0-0-0-0-0---0-0-0-----|


---Intro

 SIm - FA#m - SIm - FA#m - LAm - MIm - LAm* - REM* - FA#M*

---Estrofas


Estilo de Rasguido en las ESTROFAS: (esta parte cambia algunas veces
                                  pero se arregla escuchando el tema)

          SIm                        FA#m
1|---------------------|-----------2---------2-----|
2|---------------------|-----------2---------2-----|
3|-----------------9-7-|-----------2-----2---2-----|
4|-9-9-9-9-9-9-9-9-9-7-|-4-4-4-4-4---------4---2-0-|
5|-9-9-9-9-9-9-9-9-----|-4-4-4-4-4---2h4-----------|
6|-7-7-7-7-7-7-7-7-----|-2-2-2-2-2-----------------|
   m m m m m m m m       m m m m m

         LAm                   MIm
1|-----------5---------|-----------0-------0-0-|
2|-----------5---------|-----------0-------0-0-|
3|-----------5-5-7-7-5-|-----------0-------0-0-|
4|-7-7-7-7-7---5-7-7-5-|-2-2-2-2-2---2-2-2-----|
5|-7-7-7-7-7-----------|-2-2-2-2-2---2-2-2-----|
6|-5-5-5-5-5-----------|-0-0-0-0-0---0-0-0-----|
   m m m m m             m m m m m   m m m

SIm                            FA#m
Esta vez (por fín!) la prisión te va a gustar
SIm                            FA#m
el reo semental se va a licuar en la prision
LAm
Gatas lindas!, sirenas llenas!
MIm
camisa apretada!, pezón radiactivo!
LAm*
Reclamando el botín para la prisión
REM*
del Dios-prisión-felíz-prisión...
FA#M*   SIm         FA#m
el Dios Barbazul de esta prisión.


SIm
Tu aullido esa vez (quiera Dios!)
                  FA#m
no se va a oir en la prisión.
LAm
Puede la Virgen Labial brillar
MIm
en risas pillas, manzanas firmes
LAm*
de viejas feas como monos, puájj!
REM*                      FA#M*
de antiguas Lobas-pulpas que reviven
         SOLO
el amor letal de esta Prisión


SIm                            FA#m
Esta vez (por fín!) la prisión te va a gustar
SIm                            FA#m
el reo semental se va a licuar en la prision
LAm
Gatas lindas!, sirenas llenas!
MIm
camisa apretada!, pezón radiactivo!
LAm*
Reclamando el botín para la prisión
REM*
del Dios-prisión-felíz-prisión...
FA#M*   SIm         FA#m
el Dios Barbazul de esta prisión.


SIm
Tu aullido esa vez (quiera Dios!)
                  FA#m
no se va a oir en la prisión.
LAm
Puede la Virgen Labial brillar
MIm
en risas pillas, manzanas firmes
LAm*
de viejas feas como monos, puájj!
REM*                      FA#M*
de antiguas Lobas-pulpas que reviven
         SOLO
el amor letal de esta Prisión

    EN ESTE ULTIMO SOLO TAMBIEN SE PUEDE
    SEGUIR IGUAL PERO EN EL FINAL SE HACE,
EN VEZ DE FA#M, FA5 - SOL5 - LA#5 - Y TERMINA EN SI5


NOTA: Al solo no lo saque, si alguien se lo sabe
      por favor agregenlo acá.

            
            
Suggest correction
Creating personal tab
Creating personal tab
You can edit any tab online and save it as your Personal.

You can edit, replace or remove any tab part or add personal notes – all changes will be seen only by you.

Personal tabs can be accessed anytime from any device, even offline.
Learn more »
Give kudos to tab author, rate the tab!
1 2 3 4 5
comments
print report bad tab
guest
Wanna post a correction for this tab? Suggest correction