Oops, an error
Loading. Please wait.

Buenas Noticias tab

version 3
version 3

Whole song

116 views 1 this week
no commentswrite comment
1 2 3 4 5
2 more votes to show rating
add to favorites
×
Save as Personal and add changes to this tab that will be seen only by you. Learn more ›
×
You can save this tab as Personal to edit and correct it or add notes. All changes will be seen only by you. Learn more »
launch autoscroll
font size
0
reset
how to read this tab
guitar tuner
edit
Autoscroll
slow
fast
+/-
esc
set tempo
stop
intro


guitarra      RE5                       DO5
e|----------------------------------|---------------------------------|--|
B|----------------------------------|---------------------------------|--|
G|----------7-7-------------7-7-----|---------5-5-------------5-5-----|x2|
D|------7-7-----(7)-----7-7-----(7)-|-----5-5----(5)------5-5-----(5)-|--|
A|--5-5--------------5-5------------|-3-3-------------3-3-------------|--|
E|----------------------------------|---------------------------------|--|

BAJO  (en esta vuelta el bajo no toca nada)

sigue asi...

guitarra      RE5                       DO5
e|----------------------------------|---------------------------------|--|
B|----------------------------------|---------------------------------|--|
G|----------7-7-------------7-7-----|---------5-5-------------5-5-----|x2|
D|------7-7-----(7)-----7-7-----(7)-|-----5-5----(5)------5-5-----(5)-|--|
A|--5-5--------------5-5------------|-3-3-------------3-3-------------|--|
E|----------------------------------|---------------------------------|--|

BAJO:

G|----------------------------------|---------------------------------|--|
D|----------------------------------|---------------------------------|x2|
A|--5----------3---5-------------1--|-3----------1---3-------------3--|--|
E|----------------------------------|---------------------------------|--|


VERSO 1:

RE5(como en la intro)
Esa banda inconsolable de perros sin folleto
DO5(como en la intro)
brujas de alma sencilla, patéticos viajantes.
RE5
Pobres tontos, pobres diablos, lunáticos diamantes 
DO5
prometidos de carne, lánguidos impalpábles


guitarra:                                                                    _
                   RE5                       DO5                              |
e|----------------------------------|--|---------------------------------|--| |
B|----------------------------------|--|---------------------------------|--| | esto a su vez
G|----------7-7-------------7-7-----|X2|---------5-5-------------5-5-----|x2| |   se toca 
D|------7-7-----(7)-----7-7-----(7)-|--|-----5-5----(5)------5-5-----(5)-|--| |   X 2
A|--5-5--------------5-5------------|--|-3-3-------------3-3-------------|--| |
E|----------------------------------|--|---------------------------------|--| |
                                                                             _|
BAJO:

G|----------------------------------|--|---------------------------------|--|  |
D|-----%----------------------------|X2|------%------------%-------------|x2|  | X2
A|--5----------3---5-------------0--|--|-1-3--------1---3-------------3--|--|  |
E|----------------------------------|--|---------------------------------|--|  |


ESTRIBILLO:

SIb Punteo 1 RE          Punteo 2  SIb-DO-(enganche con VERSo 2)
son...      mis amantes 
    
guitarra:  
    SIb        Punteo 1                RE     Punteo 2                      SIb  
e|----------------------------------|------|------------------------------|---------------------|
B|----------------------------------|------|------------------------------|---------------------|
G|-(3)--3-2-3-2--0------------------|------|---------7--------------------|(3)----------3--3--3-|
D|-(3)-------------3-2-0----------5-|--(7)-|-----4-7---(8)-7-8-7-5--4p0---|(3)x-x--x-x--3--3--3-|
A|-(1)-------------------3-(1)-0--3-|/-(5)-|-5-7------------------------0-|(1)x-x--x-x--1--1--1-|
E|----------------------------------|------|------------------------------|---------------------| 
"Son....                         mis  amantes...." 

     SIb                  SIb                        DO   
--------------------|----------------------|-----------------------|
--------------------|----------------------|-----------------------|
-----------3--3--3--|------------3--3--3---|-------------5-5-5-----|
-x-x--x-x--3--3--3--|--x-x--x-x--3--3--3---|--x-x--x-x---5-5-5-x-x-|
-x-x--x-x--1--1--1--|--x-x--x-x--1--1--1---|--x-x--x-x---3-3-3-x-x-|
--------------------|----------------------|-----------------------|


BAJO:
    SIb                                RE      Punteo 2                      SIb
g|----------------------------------|------|------------------------------|---------------------|
D|----------------------------------|------|------------------------4p0---|---------------------|
A|-(1)---------------------------(3)|/-(5)-|-(5)-------(1)--------------0-|(1)x-x--x-x--1--1--1-|
E|----------------------------------|------|------------------------------|---------------------|
SIb                    SIb
--------------------|----------------------|-----------------------|
--------------------|----------------------|-----------------------|
-x-x--x-1-----1--1--|--x-x--x-1-----1--1---|--x-x--x-3-----3-3-----|
--------------------|----------------------|-----------------------|


VERSO 2 (IGUAL)

guitarra:                                                                    _
                   RE5                       DO5                              |
e|----------------------------------|--|---------------------------------|--| |
B|----------------------------------|--|---------------------------------|--| | esto a su vez
G|----------7-7-------------7-7-----|X2|---------5-5-------------5-5-----|x2| |   se toca 
D|------7-7-----(7)-----7-7-----(7)-|--|-----5-5----(5)------5-5-----(5)-|--| |   X 2
A|--5-5--------------5-5------------|--|-3-3-------------3-3-------------|--| |
E|----------------------------------|--|---------------------------------|--| |

RE5          riff 1               riff 2
Llegan buenas nuevas de los escondidos,
DO5
de los convalecientes para los sonados.
RE5            riff 1                        riff 2
Mi aliento ya no espera (no hay fiera en mi colmillo)
DO5
pero devoro herido el espacio y el brillo


 guitarra 2
   riff 1         riff 2                                                          
e|-------------|---------------||
B|-------(6b)--|-12--12--10~---||
G|--5-7--------|-12--12--10~---||
D|-------------|---------------||
A|-------------|---------------||
E|-------------|---------------||


ESTRIBILLO 2 (igual)

guitarra:  
    SIb        Punteo 1                RE     Punteo 2                      SIb  
e|----------------------------------|------|------------------------------|---------------------|
B|----------------------------------|------|------------------------------|---------------------|
G|-(3)--3-2-3-2--0------------------|------|---------7--------------------|(3)----------3--3--3-|
D|-(3)-------------3-2-0----------5-|--(7)-|-----4-7---(8)-7-8-7-5--4p0---|(3)x-x--x-x--3--3--3-|
A|-(1)-------------------3-(1)-0--3-|/-(5)-|-5-7------------------------0-|(1)x-x--x-x--1--1--1-|
E|----------------------------------|------|------------------------------|---------------------|   
"De....                         mis  amantes...." 

     SIb                  SIb                        DO   
--------------------|----------------------|-----------------------|
--------------------|----------------------|-----------------------|
-----------3--3--3--|------------3--3--3---|-------------5-5-5-----|
-x-x--x-x--3--3--3--|--x-x--x-x--3--3--3---|--x-x--x-x---5-5-5-x-x-|
-x-x--x-x--1--1--1--|--x-x--x-x--1--1--1---|--x-x--x-x---3-3-3-x-x-|
--------------------|----------------------|-----------------------|


PUENTE:

guitarra 1

e|-----------------------------|------------------|-----------------------------|--------------|
B|-----------------------------|------------------|-----------------------------|--------------|
G|-----------------------------|--------------(5)-|-----------------------------|------(5)-----|
D|-----7-5-7-----7-7-------5-7-|---7-5-7----7-----|-----7-5-7-----7-7-------5-7-|-(7)--(5)-----|
A|--7------------------5-7-----|------------------|--7------------------5-7-----|-(7)--(3)-----|
E|--5---------5----------------|-5--------5-------|--5---------5----------------|-(5)----------|

guitarra 2
e|-----------------------------|------------------|-----------------------------|--------------|
B|-----------------------------|-------7-7-7------|5b---------------------------|-7-7-/-5------|
G|----------%------------------|-------7-7-7-5----|5b----8h7-5--7-(5)-----5-----|-7-7-/-5------|
D|-----------------------------|--------------(7)-|-----------7-------5-7-------|--------(7)~--|
A|-----------------------------|------------------|-----------------------------|--------------|
E|-----------------------------|------------------|-----------------------------|--------------|

BAJO:
D|-----------------------------|------------------|-----------------------------|--------------|
A|------%-------------%--------|-----%--------%---|--------%--------%-----------|--------------|
E|--5------------5-------------|--5--------5------|-----5---------5-------------|--5---8-------|

%= silencios.

VERSO 3:  (Igual)

RE5
Alguna recaida, un poco de hipo brusco,
DO5
para los fugitivos marcados a fuego.
RE5
Y alguno que otro hechizo (todo muy sencillo)
DO5
si nada me conmueve, ni los tiroteos 


ESTRIBILLO FINAL: 

"De...... mis amantes"

guitarra hace esto:
  
    SIb        Punteo 1                RE     Punteo 2                      SIb  
e|----------------------------------|------|------------------------------|---------------------|
B|----------------------------------|------|------------------------------|---------------------|
G|-(3)--3-2-3-2--0------------------|------|---------7--------------------|(3)----------3--3--3-|
D|-(3)-------------3-2-0----------5-|--(7)-|-----4-7---(8)-7-8-7-5--4p0---|(3)x-x--x-x--3--3--3-|
A|-(1)-------------------3-(1)-0--3-|/-(5)-|-5-7------------------------0-|(1)x-x--x-x--1--1--1-|
E|----------------------------------|------|------------------------------|---------------------|   
"De....                         mis  amantes...." 

     SIb                  SIb                        DO   
--------------------|----------------------|-----------------------|
--------------------|----------------------|-----------------------|
-----------3--3--3--|------------3--3--3---|-------------5-5-5-----|
-x-x--x-x--3--3--3--|--x-x--x-x--3--3--3---|--x-x--x-x---5-5-5-x-x-|
-x-x--x-x--1--1--1--|--x-x--x-x--1--1--1---|--x-x--x-x---3-3-3-x-x-|
--------------------|----------------------|-----------------------|


y esto de ahora : X 4
    DO    RE      punteo 2                          SIb                  SIb     
e|---|------|------------------------------|---------------------|--------------------|---------
B|---|------|------------------------------|---------------------|--------------------|---------
G|---|------|---------7--------------------|(3)----------3--3--3-|-----------3--3--3--|---------
D|-5-|--(7)-|-----4-7---(8)-7-8-7-5--4p0---|(3)x-x--x-x--3--3--3-|-x-x--x-x--3--3--3--|---------
A|-3-|/-(5)-|-5-7------------------------0-|(1)x-x--x-x--1--1--1-|-x-x--x-x--1--1--1--|---------
E|---|------|------------------------------|---------------------|--------------------|--------- 
     SIb                  DO   
|----------------------|-----------------------|
|----------------------|-----------------------|
|------------3--3--3---|-------------5-5-5-----|X4
|--x-x--x-x--3--3--3---|--x-x--x-x---5-5-5-x-x-|
|--x-x--x-x--1--1--1---|--x-x--x-x---3-3-3-x-x-|
|----------------------|-----------------------|

guitarra2 
  
  DO   RE  punteo 2  SIb  SIb   SIb    DO          DO   RE punteo2   SIb       SIb        SIb
E|---|-----|-------|----|-----|-----|-----------|------|--|-------|-6b6666666-|66666666-|------
B|---|-----|-------|----|-----|-----|-----6b----|------|--|-------|-6b6666666-|66666666-|-(6)--
G|-%-|--%--|-%-----|-%--|--%--|--%--|-5-7----7-5|-(7)~~|~~|~~~~~~-|-----------|---------|-----| 
D|---|-----|-------|----|-----|-----|-----------|------|--|-------|-----------|---------|----- 
A|---|-----|-------|----|-----|-----|-----------|------|--|-------|-----------|---------|-----
E|---|-----|-------|----|-----|-----|-----------|------|--|-------|-----------|---------|----- 
  DO           DO      punteo 2
e|-----------|------|--------------------------|------------8-6-(6)-|-------|---------6---------|
B|-----6b----|------|-10-10-h8----8------------|-----6b-----8-6-(6)-|-------|---6b----6---------|
G|-5-7----7-5|-(7)~~|----------10--10--7p5-(7)-|-5h7----7-5---------|-7h5-7-|5h7--7-5---7h5-(7)-|
D|-----------|------|--------------------------|--------------------|-------|-------------------|
A|-----------|------|--------------------------|--------------------|-------|-------------------|
E|-----------|------|--------------------------|--------------------|-------|-------------------|

------------------||
14br--14br--(14b)-||
------------------||
------------------||
------------------||
------------------||

fade out

            
            
Suggest correction
Creating personal tab
Creating personal tab
You can edit any tab online and save it as your Personal.

You can edit, replace or remove any tab part or add personal notes – all changes will be seen only by you.

Personal tabs can be accessed anytime from any device, even offline.
Learn more »
Give kudos to tab author, rate the tab!
1 2 3 4 5
comments
print report bad tab
guest
Wanna post a correction for this tab? Suggest correction