Oops, an error
Loading. Please wait.

Cancion Para Naufragios. tab

version 2
version 2

Whole song

261 views 1 this week
no commentswrite comment
1 2 3 4 5
2 more votes to show rating
add to favorites
×
Save as Personal and add changes to this tab that will be seen only by you. Learn more ›
×
You can save this tab as Personal to edit and correct it or add notes. All changes will be seen only by you. Learn more »
launch autoscroll
font size
0
reset
how to read this tab
guitar tuner
edit
Autoscroll
slow
fast
+/-
esc
set tempo
stop
Esta es la versión en vivo de "Canción para Naufragios"
de Huracán 1994,no es igual a la versión de disco,
búsquenla así la escuchan bien.

Patricio Rey y sus Redonditos de Ricota
Canción Para Naufragios - Huracán 1994 -

Riff:
|-------------------------------------------------------------------|
|--88-77------88-77------12-12--12-15-15~~---12-12--12-15-15~~-15/--|
|-------99---------99-----------------------------------------------|
|---------99---------99---------------------------------------------|
|-------------------------------------------------------------------|
|-------------------------------------------------------------------|

|------------------------------------------------------------|
|--88-77------88-77------88-77-----88-77--8/10--10/12--12~~--|
|-------99---------99---------99-----------------------------|
|---------99---------99--------------------------------------|
|------------------------------------------------------------|
|------------------------------------------------------------|

"Bombas de aquí para allá...
 MIm                       LAm
|----7---7-7-----7---7-7--|---5---5-5----55--8--5--|
|----8---8-8-----8---8-8--|---5---5-5----55--8--5--|
|--x-9-x-9-9---x-9-x-9-9--|-x-5-x-5-5--------------|
|--x-9-x-9-9---x-9-x-9-9--|-x-7-x-7-7--------------|
|--x-7-x-7-7---x-7-x-7-7--|-x-7-x-7-7--------------|
|-------------------------|---5---5-5--------------|

MIm                       LAm
|----7---7-7-----7---7-7--|---5---5-5----5------5------|
|----8---8-8-----8---8-8--|---5---5-5------5------5----|
|--x-9-x-9-9---x-9-x-9-9--|-x-5-x-5-5--------5------5--|
|--x-9-x-9-9---x-9-x-9-9--|-x-7-x-7-7------------------|
|--x-7-x-7-7---x-7-x-7-7--|-x-7-x-7-7------------------|
|-------------------------|---5---5-5------------------|


Puente:
|-------------------------------------------------------------|
|---------------------------------------------14-14-141414~/--|
|-------------------------------------------------------------|
|-------------------------------------------------------------|
|---------------2-------2----2-1~-1~1~1-/---------------------|
|--12/-----0-2-3---0-2-3-3------------------------------------|


|---------------------------------------------|
|-------------------------------55-33-22------|
|----------------------------------------3~/--|
|---------------------------------------------|
|-------2-------2----2--4~4~------------------|
|--0-2-3---0-2-3-3----------------------------|


Solo Saxo:
|-------------------------------5--|
|-------------------------------5--|
|--12~----12~/------------------5--|
|--12~----12~/----------------7-7--|
|---------------------x2------7-7--|
|----------------0x2x3--3-----5-5--|

|-------------------------------------5---5----5----|
|-------------------------------------5----5----5---|
|----------------12/------------------5-----5----5--|
|----------------12/----------------7-7-------------|
|--2---------------------------3-2--7-7-------------|
|---3---00-2-3-0----------0-2-3-----5-5-------------|


Puente 2 e intermedio:
|-------------------------------------------------------------|
|---------------------------------------------14-14-141414~/--|
|-------------------------------------------------------------|
|-------------------------------------------------------------|
|---------------2-------2----2-1~-1~1~1-/---------------------|
|--12/-----0-2-3---0-2-3-3------------------------------------|

                                  *=Palanca         (mutear cuerdas)
|---------------------------------------------------------------19/---|
|--------------------------------------------------------x------------|
|------------------------------------12~~-12~**--------xxxx-x---------|
|------------------------------------12~~-12~**------x-xxxx-x---------|
|-------2-------2----2--4~4~-/-----------------------x-xx-x-x---------|
|--0-2-3---0-2-3-3-----------------------------------x----------------|


|-------------------------------------------|
|----x-x-----x--------x---------///16b~~---|
|--x-x-x-x-x-x-------xx-x-x-----------------|
|--x-x-x-x-x-x-------xx-x-x-----------------|
|--x-----x-x---------x--x-x-----------------|
|-------------------------------------------|


|-------------------------------------------------------------|
|---------------------------------------------14-14-141414~/--|
|-------------------------------------------------------------|
|-------------------------------------------------------------|
|---------------2-------2----2-1~-1~1~1-/---------------------|
|--12/-----0-2-3---0-2-3-3------------------------------------|


|---------------------------------------------|
|-------------------------------55-33-22------|
|----------------------------------------3~/--|
|---------------------------------------------|
|-------2-------2----2--4~4~------------------|
|--0-2-3---0-2-3-3----------------------------|

Solo Saxo 2:
|-------------------------------5--|
|-------------------------------5--|
|--12~----12~/------------------5--|
|--12~----12~/----------------7-7--|
|---------------------x2------7-7--|
|----------------0x2x3--3-----5-5--|

|-------------------------------------5---5----5----|
|-------------------------------------5----5----5---|
|----------------12/------------------5-----5----5--|
|----------------12/----------------7-7-------------|
|--2---------------------------3-2--7-7-------------|
|---3---00-2-3-0----------0-2-3-----5-5-------------|

Final:
|-------------------------------------------------------------|
|---------------------------------------------14-14-141414~/--|
|-------------------------------------------------------------|
|-------------------------------------------------------------|
|---------------2-------2----2-1~-1~1~1-/---------------------|
|--12/-----0-2-3---0-2-3-3------------------------------------|


|---------------------------------------------|
|-------------------------------55-33-22------|
|----------------------------------------3~/--|
|---------------------------------------------|
|-------2-------2----2--4~4~------------------|
|--0-2-3---0-2-3-3----------------------------|


|-------------------------------------------------------------|
|---------------------------------------------14-14-141414~/--|
|-------------------------------------------------------------|
|-------------------------------------------------------------|
|---------------2-------2----2-1~-1~1~1-/---------------------|
|--12/-----0-2-3---0-2-3-3------------------------------------|


                                                          * =Palanca
|-------------------------------------------------------------------|
|--------------------------55-33-22---55-33-22---55-33-22----3~-***-|
|----------------------------------3----------3----------3---4~-***-|
|----------------------------------------------------------4--------|
|-------2-------2---2-4~4~------------------------------------------|
|--0-2-3---0-2-3-3--------------------------------------------------|


pupi-pr@

            
            
Suggest correction
Creating personal tab
Creating personal tab
You can edit any tab online and save it as your Personal.

You can edit, replace or remove any tab part or add personal notes – all changes will be seen only by you.

Personal tabs can be accessed anytime from any device, even offline.
Learn more »
Give kudos to tab author, rate the tab!
1 2 3 4 5
comments
print report bad tab
guest
Wanna post a correction for this tab? Suggest correction