Oops, an error
Loading. Please wait.
44 views 1 this week
no commentswrite comment
1 2 3 4 5
3 more votes to show rating
add to favorites
×
Save as Personal and add changes to this tab that will be seen only by you. Learn more ›
×
You can save this tab as Personal to edit and correct it or add notes. All changes will be seen only by you. Learn more »
launch autoscroll
font size
0
reset
how to read this tab
guitar tuner
edit
Autoscroll
slow
fast
+/-
esc
set tempo
stop
INTRO:
------

GUITARRA:
        FA#                  FA#              FA#
E|-2-2-0-0-2-2-0-|----|-2-2-0-0-2-2-0-|--2-2-0-0-2-2-0--|
B|-2-2-0-0-2-2-0-|----|-2-2-0-0-2-2-0-|--2-2-0-0-2-2-0--|
G|---------------|-X4-|---------------|-----------------|
D|---------------|----|---------------|-----------------|
A|---------------|----|---------------|-----------------|
E|---------------|----|---------------|-----------------|

BAJO:
                             FA#              FA#
G|---------------|----|---------------|-----------------|
D|---------------|-X4-|---------------|-----------------|
A|---------------|----|---------------|-----------------|
E|---------------|----|-(2)-(0)-(2)---|-(2)-(0)-(2)-(0)-|


1er VERSO:
---------

GUITARRA:
       FA#
E|-2-2-0-0-2-2-0-|----|
B|-2-2-0-0-2-2-0-|----|
G|---------------|-X4-|
D|---------------|----|
A|---------------|----|
E|---------------|----|

BAJO:
       FA#
G|---------------|----|
D|---------------|-X4-|
A|---------------|----|
E|-2-2-0-0-2-2-0-|----|

FA#
  Me acabo de enterar de un fiero crimen,
FA#
  de un rico embarque de sangre de satan.


1er ESTRIBILLO:
--------------

GUITARRA:
         LA                  SI                   FA#
E|-5-5-3-3-5-5-3-|----|-7-7-5-5-7-7-5-|----|-2-2-0-0-2-2-0-|----|
B|-5-5-3-3-5-5-3-|----|-7-7-5-5-7-7-5-|----|-2-2-0-0-2-2-0-|----|
G|---------------|-X2-|---------------|-X2-|---------------|-X2-|
D|---------------|----|---------------|----|---------------|----|
A|---------------|----|---------------|----|---------------|----|
E|---------------|----|---------------|----|---------------|----|

BAJO:
         LA                  SI                     FA#
G|---------------|----|---------------|----|---------------|----|
D|---------------|----|---------------|----|---------------|----|
A|---------------|-X2-|---------------|-X2-|---------------|-X2-|
E|-5-5-3-3-5-5-3-|----|-7-7-5-5-7-7-5-|----|-2-2-0-0-2-2-0-|----|

LA
  Cuá cuá amen!
LA
  Cuá cuá cuá amen!
SI
  mi conciencia estaba lista
SI                        FA#
  cuando la carne explotó.


2do VERSO: (igual que en el 1er VERSO)
---------

FA#
 Nunca en la vida fui golpeado tan duro,
FA#
 punto de acetileno cegador.


2do ESTRIBILLO: (igual que en el 1er ESTRIBILLO)
--------------

LA
  Cuá cuá amen!
LA
  Cuá cuá cuá amen!
SI
  Ordenes y gritos sordos,
SI                      FA#
  miedo y llanto puteando.


INTERMEDIO:
----------

GUITARRA:
        FA#                    FA#              FA#
E|-----------------|----|---------------|---------------|
B|-----------------|----|---------------|---------------|
G|-----------------|-X2-|---------------|---------------|
D|-----------------|----|---7---6--(7)~-|---7---6--(7)~-|
A|-----------------|----|---------------|---------------|
E|-----------------|----|---------------|---------------|

BAJO:
        FA#                    FA#              FA#
G|-----------------|----|---------------|---------------|
D|-----------------|----|---------------|---------------|
A|-------------(5)-|-X2-|---------------|---------------|
E|-(2)-(0)-(2)-----|----|-2-2-0-0-2-2-0-|-2-2-0-0-2-2-0-|


3er VERSO: (igual que en el 1er VERSO)
---------

FA#
  Nunca en la vida fui golpeado tan duro,
FA#
  punto de acetileno cegador.


3er ESTRIBILLO: (igua que en el 1er ESTRIBILLO)
--------------

LA
  Cuá cuá amen!
LA
  Cuá cuá cuá amen!
SI
  Los deben estar venciendo
SI                        FA#
  Dios siempre tan imparcial


4to VERSO: (igual que en el 1er VERSO)
---------

FA#
  Me acabo de enterar de un fiero crimen,
FA#
  de un rico embarque de sangre de satan.


4to ESTRIBILLO: (igua que en el 1er ESTRIBILLO)
--------------

LA
  Cuá cuá amen!
LA
  Cuá cuá cuá amen!
SI
  Ordenes y gritos sordos,
SI                      FA#
  miedo y llanto puteando.


GUITARRA:  (solo)
E|--------------------|------------------|--|------------------------|--|
B|--------------------|------------------|--|------------------------|--|
G|-222222-1-----------|-2222~22-1--------|X2|-------7~-------6-6-5---|X2|
D|----------4-2-3-2---|-----------2-2/4~-|--|-7p6p5----7p6p5-------5-|--|
A|------------------4-|------------------|--|------------------------|--|
E|--------------------|------------------|--|------------------------|--|

BAJO:     FA#              FA#             FA#                LA
G|----------------|-----------------|--------------|--|--------------|--|
D|----------------|-----------------|--------------|X4|--------------|X4|
A|-------------(5)|-------------(5)-|--------------|--|--------------|--|
E|-(2)-(0)-(2)----|-(2)-(0)-(2)-----|-2-2-0-0-2-2-0|--|-5-5-3-3-5-5-3|--|

GUITARRA:                                             FA#       FA#
E|-10-10--------------|-10-10--------------|-------|--------|--------|
B|-10-10-11-10-8------|-10-10-11-10-8------|-(10)~-|--------|--------|
G|---------------10-9-|---------------10-9-|-------|--------|--------|
D|--------------------|--------------------|-------|-7-6-7~-|-7-6-7~-|
A|--------------------|--------------------|-------|--------|--------|
E|--------------------|--------------------|-------|--------|--------|

BAJO:     SI                  FA#                FA#
G|---------------|----|-----------------|-----------------|
D|---------------|-X2-|-----------------|-----------------|
A|---------------|----|-------------(5)-|-------------(5)-|
E|-7-7-5-5-7-7-5-|----|-(2)-(0)-(2)-----|-(2)-(0)-(2)-----|


5to VERSO: (igual que en el 1er VERSO)
---------

FA#
  Me acabo de enterar de un fiero crimen,
FA#
  de un rico embarque de sangre de satan.


5to ESTRIBILLO: (igual que en el 1er ESTRIBILLO)
--------------

LA
  Cuá cuá amen!
LA
  Cuá cuá cuá amen!
SI
  mi conciencia estaba lista
SI                        FA#
  cuando la carne explotó.

6to VERSO: (igual que en el 1er VERSO)
---------

FA#
  Nunca en la vida fui golpeado tan duro,
FA#
  punto de acetileno cegador.

6to ESTRIBILLO: (igua que en el 1er ESTRIBILLO)
--------------

LA
  Cuá cuá amen!
LA
  Cuá cuá cuá amen!
SI
  Ordenes y gritos sordos,
SI                      FA#
  miedo y llanto puteando.


GUITARRA:
        FA#                FA#              RE
E|-----------------|-----------------|----|----|
B|-----------------|-----------------|----|----|
G|-----------------|-----------------|-X2-|-RE-|
D|-----------------|-----------------|----|----|
A|-----------------|-----------------|----|----|
E|-----------------|-----------------|----|----|

BAJO:
        FA#                FA#              RE
G|-----------------|-----------------|----|----|
D|-----------------|-----------------|-X2-|----|
A|-------------(5)-|-------------(5)-|----|--5-|
E|-(2)-(0)-(2)-----|-(2)-(0)-(2)-----|----|----|

fIn...

            
            
Suggest correction
Creating personal tab
Creating personal tab
You can edit any tab online and save it as your Personal.

You can edit, replace or remove any tab part or add personal notes – all changes will be seen only by you.

Personal tabs can be accessed anytime from any device, even offline.
Learn more »
Give kudos to tab author, rate the tab!
1 2 3 4 5
comments
print report bad tab
guest
Wanna post a correction for this tab? Suggest correction