Oops, an error
Loading. Please wait.

El Arte Del Buen Comer tab

version 1
version 1

Whole song

146 views 1 this week
no commentswrite comment
1 2 3 4 5
3 more votes to show rating
add to favorites
×
Save as Personal and add changes to this tab that will be seen only by you. Learn more ›
×
You can save this tab as Personal to edit and correct it or add notes. All changes will be seen only by you. Learn more »
launch autoscroll
font size
0
reset
how to read this tab
guitar tuner
edit
Autoscroll
slow
fast
+/-
esc
set tempo
stop
intro:

Palm Mute:

E|--------------------------------|--|
B|---------------------3-3-----3-3|--|
G|---------------------3-3-x-x-3-3|x2|
D|-------------------------x-x----|--|
A|-2-2-----2-2-----2-2------------|--|
E|-0-0-3-3-0-0-3-3-0-0------------|--|


|--------------------------------|------------------|--|(0)|
|-----------------------------3-3|------------------|--|(3)|
|-----------------------------3-3|------------------|--|(3)|
|--------------------------------|------------------|-%|---|
|-2-2-----2-2-----2-2-----2-2----|-2-2-----2-2-----2|--|---|
|-0-0-3-3-0-0-3-3-0-0-3-3-0-0----|-0-0-3-3-0-0-3-3-0|--|---|

VERSO 1:

            RIFF  A                       RIFF B
E||--------------------------------|---------------------------|
B||-----------------------------3-3|--------------------3--3-3-|
G||-----------------------------3-3|--------------------3--3-3-|
D||--------------------------------|---------------------------|
A||-2-2-----2-2-----2-2-----2-2----|-2-2-----2-2-----2-2-------|
E||-0-0-3-3-0-0-3-3-0-0-3-3-0-0----|-0-0-3-3-0-0-3-3-0-0-------|


 RIFF  A
Pituca cree que es el mejor,
 RIFF  B
el mejor culo para su sillón
  FA#5                              SI5    puente
y sabe bien que hoy su chance es gorda.


Puente:

E|-------------------------|
B|-------------------------|
G|-------------------------|
D|-------------------------|
A|--9-9--7-7--5-5--4-4-----|
E|--7-7--5-5--3-3--2-2-----|


RIFF A
Le ha puesto al fin su nombre al toallón,
RIFF B
compró marfiles de la selva del Congo


  FA#5                        SI  + Riff
y en su coco siempre hay un petardo.


  RIFF:
E|--------------|
B|-7------------|
G|---8----------|
D|-----9-(9)~~--|
A|--------------|
E|--------------|


ESTRIBILLO:

DO5        LA5
Rodeado de grandanesas
DO5          SI5
que se salen de la blusa
 LA5           SI5
con bestial dulzura, rush
 DO5             SI5
y risas de "Barón V"
PUENTE
 (y así Pituca se la cree).


INTERMEDIO:

guitarra:
E||--------------------------------|------------------|--|(0)|
B||----------------------------(3)-|------------------|--|(3)|
G||----------------------------(3)-|------------------|--|(3)|
D||--------------------------------|------------------|-%|---|
A||-2-2-----2-2-----2-2-----2-2----|-2-2-----2-2-----2|--|---|
E||-0-0-3-3-0-0-3-3-0-0-3-3-0-0----|-0-0-3-3-0-0-3-3-0|--|---|


VERSO 2: (igual)

RIFF A
Aún ayer no ligaba el amor,
RIFF B
y no enceraba nunca el bastón,
FA#5                       SI5
su boca olía como un cenicero.

RIFF A
Tuvo un golpe de audacia y se dió
RIFF B
de timbero fogoso y feroz

PRE-ESTRIBILLO (igual)

FA#5                             SI5 + RIFF
de los que nunca muestran todo el mazo.

ESTRIBILLO:
DO5        LA5             DO5        SI5
Y hoy come la real manzana y no deja ni pepita,
LA5        SI5        DO5        SI5
usa sal de melodrama, pero sin abusar
SI5 + Puente
y así Pituca se la cree


SOLO DE SAXO;:

          .

       LA                SI     DO      DO#        DO
E|-------------------|----------------------------------|
B|-------------------|----------------------------------|
G|-------------------|----------------------------------|
D|---7----7----7----7|----------------------------------|
A|---7----7----7----7|-9-9--9-1010--10--11-11--11-10-10-|
E|55-5-55-5-55-5-55-5|-7-7--7--8-8---8--9--9---9--8---8-|


                               en el
                 SI            puente
|----|-----|-----|-------------|--------|
|----|-----|-----|-------------|--------|
|----|-LA5-|-Do5-|---(4)~---(4)|---(4)~~|
|----|-----|-----|4-4----4-4---|4-4-----|
|-10-|-----|-----|2-2----2-2---|2-2-----|
|-8/-|-----|-----|-------------|--------|

sobre el [Sol] de bajo                     Sobre puente
E|--0--0-0----0--0---0-0-|--|------|-----|-------------|
B|--3--3-3----3--3---3-3-|--|------|-----|-------------|
G|--3--3-3----3--3---3-3-|X4|-DO5--|-SI5-|-----(4)~~---|
D|-----------------------|--|------|-----|-4-4---------|
A|-----------------------|--|------|-----|-2-2---------|
E|-----------------------|--|------|-----|-------------|

y despues REPITE INTERMEDIO...

INTERMEDIO: (IGUAL)


VERSO 3:

RIFF A
Pituca insiste en que es el mejor,
RIFF B
el mejor culo para su sillón
FA#5                               SI5 + puente
y sabe bien que hoy su chance es gorda.

RIFF A
Tuvo un golpe de audacia y se dió
RIFF B
de timbero fogoso y feroz

PRE-ESTRIBILLO (igual)


FA#5                              SI + RIFF
de los que nunca muestran todo el mazo.


ESTRIBILLO FINAL..

DO5        LA5             DO5        SI5
Y hoy come la real manzana y no deja ni pepita,
LA5        SI5        DO5        SI5
usa sal de melodrama, pero sin abusar
SI5 + Puente
y así Pituca se la cree

Temina en La


fin

Tema dedicado para Nico Vezza y Hugo Osuna!!
aguante los redondos..
solo te pido que se vuelvan a juntar!

W
PR

            
            
Suggest correction
Creating personal tab
Creating personal tab
You can edit any tab online and save it as your Personal.

You can edit, replace or remove any tab part or add personal notes – all changes will be seen only by you.

Personal tabs can be accessed anytime from any device, even offline.
Learn more »
Give kudos to tab author, rate the tab!
1 2 3 4 5
comments
print report bad tab
guest
Wanna post a correction for this tab? Suggest correction