Oops, an error
Loading. Please wait.

Esa Estrella Era Mi Lujo tab

version 3
version 3

Whole song

Interactive

79 views 1 this week
no commentswrite comment
1 2 3 4 5
3 more votes to show rating
add to favorites
×
Save as Personal and add changes to this tab that will be seen only by you. Learn more ›
×
You can save this tab as Personal to edit and correct it or add notes. All changes will be seen only by you. Learn more »
launch autoscroll
font size
0
reset
how to read this tab
guitar tuner
edit
Autoscroll
slow
fast
+/-
esc
set tempo
stop
INTRO: Am F (Riff 1) + (Riff 2) x 4 / (1º  solo) (o Am F E Am x 3)
  Riff 1
e|---5-3-5-3--3-----------
B|---------------6-5------
G|---2-0-2-0--0-----------
D|---------------3-2------
A|------------------------
E|------------------------

  1º  solo                                                   F   E
e|-----------------------------------------------------------
B|-1-0---------------------------------8-10------------------
G|-----2-0----------------------7-9-10--------9---2---------
D|---------3----2--------7-9-10-----------------------------
A|-------------------0---------------------------------------
E|-----------------------------------------------------------

(Suenan como bajos)
  Riff 2     Am| Riff 3    Am
e|-------------|e------------
B|-------------|B------------
G|-------------|G------------
D|-------------|D------------
A|------0-3-0--|A--2-3-232-0-
E|0-0-3------|E------------

Am               F
  '¿Era todo?', pregunté
 E           Am   Riff 2
  (soy un iluso).
Am              F
  No nos dimos nada más,
 E              Am   Riff 3
  sólo un buen gesto.

Intro

  Mordí el anzuelo una vez más
  (siempre un iluso),
  nuestra estrella se agotó
  y era mi lujo.

Intro + Solo (Am F E Am)
e|-----------------------------------------------------------------
B|-1-0---------------------------------8-10--10-8---8-10-----------
G|-----2-0----------------------7-9-10------------9-------9-7----9-
D|---------3----2--------7-9-10------------------------------10----
A|-------------------0---------------------------------------------
E|-----------------------------------------------------------------

e|-----------------------------------------------------------|-----
B|-----------------------------------------------------------|-----
G|-----------------------------9-7----9-7----9-7-------------|-----
D|------7-10--7-------7-10---------10-----10-----10-9-10-9---|-----
A|-7-10----------7-10-------8------------------------------7-|-7-10
E|-----------------------------------------------------------|-----

e|-----------------7-8-10-8--7--8--7--5--7-8---7-8-7--4----5----|
B|----------8-10-----------------------------------------5------|
G|------7-9-----------------------------------------------------|
D|-7-10---------------------------------------------------------|
A|--------------------------------------------------------------|
E|--------------------------------------------------------------|

    (Más ráapido)

 Am            F
  Ella fue por esa vez
 E           Am       Riff 2
  mi héroe vivo, ¡Bah!
  Fue mi único héroe
            Riff 2
  en este lío.

  La más linda del amor
  que un tonto ha visto soñar
                            E
  metió, metió mi rock & roll...
  (Silencio)    Am
  bajo este pulso.


que pedazo de tema, aguanten los redondos

            
            
Suggest correction
Creating personal tab
Creating personal tab
You can edit any tab online and save it as your Personal.

You can edit, replace or remove any tab part or add personal notes – all changes will be seen only by you.

Personal tabs can be accessed anytime from any device, even offline.
Learn more »
Give kudos to tab author, rate the tab!
1 2 3 4 5
comments
print report bad tab
guest
Wanna post a correction for this tab? Suggest correction