Oops, an error
Loading. Please wait.

Estas Frito Angelito tab

version 2
version 2

Whole song

32 views 1 this week
no commentswrite comment
1 2 3 4 5
3 more votes to show rating
add to favorites
×
Save as Personal and add changes to this tab that will be seen only by you. Learn more ›
×
You can save this tab as Personal to edit and correct it or add notes. All changes will be seen only by you. Learn more »
launch autoscroll
font size
0
reset
how to read this tab
guitar tuner
edit
Autoscroll
slow
fast
+/-
esc
set tempo
stop
Estas frito angelito¡
INTRO:
GUITARRA 1:  (riff 1)
   RE #
e|----------------------------------------------|
B|----------------------------------------------|
G|--8-8-8--%--8-8-8--%---8-8-8------------------|X3
D|--8-8-8-----8-8-8------8-8-8----6--8--6-(7)~--|
A|--6-6-6-----6-6-6------6-6-6------------------|
E|----------------------------------------------|

BAJO:
G|-----------------------------------------|
D|------6-8------6-8-------6-8-------8--6--|X3
A|--6-6------6-6------6-6--------6-6-------|
E|-----------------------------------------|

GUITARRA 2:
e|------------|--|-----------------|---|------------------------|
B|---silenci0-|--|-----------------|---|------------------------|
G|-----x------|--|-----------------|-#-|------------------------|
D|--2-vueltas-|--|-----------------|---|------------------------|
A|---de-Riff1-|--|-/-6-6-66-4------|---|-/-6-6--6--4-------(4)--|
E|------------|--|-------------7-6-|---|-------------7-6-7------|


VERSO 1:

BAJO:  MI
G|----------------------------------------------------|
D|----------------------------------------------------|X3
A|----------------------------------------------------|
E|--0-0--5-7--0-0--5-7--0-0--5-7---0-0--5-7--0-0--7-5-|

GUITARRA 1:  MI
e|--------------------------------|--|-------------------------------------------|
B|--------------------------------|--|-------------------------------------------|
G|----------------------------(9)-|X2|---------------(9)--------------------(9)--|
D|-(2)------------------------(9)-|--|-(2)-----------(9)-----(2)------------(9)--|
A|-(2)----------------------------|--|-(2)-------------------(2)-----------------|
E|-(0)--0-0-0-0-0-0-0-0-0-0-0-----|--|-(0)-0-0-0-0-0---------(0)-0-0-0-0-0-------|
Pm     ......................              .........             .........

MI
tu naturaleza te quiere matar
ojos con dos pupilas te van a matar
dale que va...
dale que va


ESTRIBILLO 1 (Riff 1)

   RE #
e|----------------------------------------------|
B|----------------------------------------------|
G|--8-8-8--%--8-8-8--%---8-8-8------------------|X3
D|--8-8-8-----8-8-8------8-8-8----6--8--6-(7)~--|
A|--6-6-6-----6-6-6------6-6-6------------------|
E|----------------------------------------------|

BAJO:
G|-----------------------------------------|
D|------6-8------6-8-------6-8-------8--6--|X3
A|--6-6------6-6------6-6--------6-6-------|
E|-----------------------------------------|

GUITARRA 2:
e|------------|--|-----------------|---|------------------------|
B|---silenci0-|--|-----------------|---|------------------------|
G|-----x------|--|-----------------|-#-|------------------------|
D|--2-vueltas-|--|-----------------|---|------------------------|
A|---de-Riff1-|--|-/-6-6-66-4------|---|-/-6-6--6--4-------(4)--|
E|------------|--|-------------7-6-|---|-------------7-6-7------|


RE#
estas frito angelito
estas frito angelito


VERSO 2: (IGUAL)

hay buitres en la tele que quieren matar
con carnadas finas te van a matar
dale que va..
dale que va..

ESTRIBILLO 2: (Igual)

RE#
estas frito angelito
estas frito angelito

SOLO DE GUITARRA:
BAJO:  MI
G|----------------------------------------------------|
D|----------------------------------------------------|X2
A|----------------------------------------------------|
E|--0-0--5-7--0-0--5-7--0-0--5-7---0-0--5-7--0-0--7-5-|

Guitarra (solo)

e|----------------------------------------------------------------------------------|
B|----------------------------------------------------------------------------------|
G|----------------------------------------------------------------------------------|
D|----------------------------------------------------------------------------------|
A|----------------------------------------------------------------------------------|
E|----------------------------------------------------------------------------------|


ESTRIBILLO 3: (Igual)

RE#
estas frito angelito
estas frito angelito


VERSO 3: (IGUAL)

Camellos prestigiosos te van a matar
vas a tener que usar pañales de aqui en mas
dale que va..
dale que va..

ESTRIBILLO 4: (Igual)

RE#
estas frito angelito
estas frito angelito


VERSO 4: (IGUAL)

vas a poner contacto y tu culo va a volar
lejos de tu croqueta  va a volar
dale que va..
dale que va..

ESTRIBILLO 5: (Igual)

RE#
estas frito angelito
estas frito angelito


****************************************************
Se va haciendo verso... y estribillo varias veces 
****************************************************
fade out...

            
            
Suggest correction
Creating personal tab
Creating personal tab
You can edit any tab online and save it as your Personal.

You can edit, replace or remove any tab part or add personal notes – all changes will be seen only by you.

Personal tabs can be accessed anytime from any device, even offline.
Learn more »
Give kudos to tab author, rate the tab!
1 2 3 4 5
comments
print report bad tab
guest
Wanna post a correction for this tab? Suggest correction