Oops, an error
Loading. Please wait.

Fuegos De Octubre tab

version 2
version 2

Whole song

36 views 1 this week
no commentswrite comment
1 2 3 4 5
3 more votes to show rating
add to favorites
×
Save as Personal and add changes to this tab that will be seen only by you. Learn more ›
×
You can save this tab as Personal to edit and correct it or add notes. All changes will be seen only by you. Learn more »
launch autoscroll
font size
0
reset
how to read this tab
guitar tuner
edit
Autoscroll
slow
fast
+/-
esc
set tempo
stop
Pre-intro

E|----------|---|
B|----------|---|
G|----------|---|
A|-------9--|x12|
D|--(7)-----|---|
E|--(7)-----|---|


Intro - Parte 1:

E|---------------------|----------|--|-------------------|
B|--10--12-12--10--12--|----------|--|-------------------|
G|---------------------|----------|--|--9--11-11--9--11--|
A|---------------------|-------9--|x2|-------------------|
D|---------------------|--(7)-----|--|-------------------|
E|---------------------|--(7)-----|--|-------------------|

E|----------|--|---------------------|----------|--|-------------------|
B|----------|--|--10--12-12--10--12--|----------|--|-------------------|
G|----------|--|---------------------|----------|--|--9--11-11--9--11--|
A|-------9--|x2|---------------------|-------9--|x2|-------------------|
D|--(7)-----|--|---------------------|--(7)-----|--|-------------------|
E|--(7)-----|--|---------------------|--(7)-----|--|-------------------|

E|----------|--|
B|----------|--|
G|----------|--|
A|-------9--|x2|
D|--(7)-----|--|
E|--(7)-----|--|


Intro - Parte 2:

E|-----------------|----------|--|-----------------|----------|--|
B|--8--------6--7--|----------|--|--8-----------7--|----------|--|
G|-----7--6--------|----------|--|-----7--6--------|----------|--|
A|-----------------|-------9--|x3|-----------9-----|-------9--|x2|
D|-----------------|--(7)-----|--|-----------------|--(7)-----|--|
E|-----------------|--(7)-----|--|-----------------|--(7)-----|--|


Intro - Parte 3:

Guitarra 1:
E|----------|---|
B|----------|---|
G|----------|---|
A|-------9--|x17|
D|--(7)-----|---|
E|--(7)-----|---|

Guitarra 2:
E|---------------|---------------|
B|---------12~~~-|---------------|
G|--7------------|--7------11~~~-|
A|----9-7--------|----7-9--------|x2
D|---------------|---------------|
E|---------------|---------------|


Intro - Parte 4:

E|-----------------|----------|--|-----------------|----------|--|
B|--8--------6--7--|----------|--|--8-----------7--|----------|--|
G|-----7--6--------|----------|--|-----7--6--------|----------|--|
A|-----------------|-------9--|x3|-----------9-----|-------9--|x3|
D|-----------------|--(7)-----|--|-----------------|--(7)-----|--|
E|-----------------|--(7)-----|--|-----------------|--(7)-----|--|


Verso:
(Repite Intro - Parte 1)

De regreso a Octubre
(desde Octubre)
Sin un estandarte, de mi parte.


Estrofa:
(Repite Intro - Parte 2, nada más que el ultimo riff, en vez
de ser x2, es x3)

Te prefiero igual
internacional.


Solo - Parte 1:

E|--------------------|
B|-----0-2--3-5--3-2~-|
G|--3-----------------|
A|--------------------|x2
D|--------------------|
E|--------------------|


Solo - Parte 2:

Guitarra 1:
E|---------------------------------------|--12--12-12-12--12-----------|
B|--10-10-12-12-12-12--12-12--10-12--10--|-------------------10-10-10--|
G|---------------------------------------|-----------------------------|
A|---------------------------------------|-----------------------------|
D|---------------------------------------|-----------------------------|
E|---------------------------------------|-----------------------------|

E|---------------------------------------|--12--12-12-12--12-----------|
B|--10-10-12-12-10-12--10-12--10-12--10--|-------------------10-10-10--|
G|---------------------------------------|-----------------------------|
A|---------------------------------------|-----------------------------|
D|---------------------------------------|-----------------------------|
E|---------------------------------------|-----------------------------|

E|--------14-----14--------14----14--------14----14-----|--12--12--12--|
B|--12-12----12-----12--12----12----12--12----12----12--|--10--10--10--|
G|------------------------------------------------------|--------------|
A|------------------------------------------------------|--------------|x2
D|------------------------------------------------------|--------------|
E|------------------------------------------------------|--------------|

Guitarra 2:
Repite todo el tiempo este riff:
E|--------------------|
B|--------------------|
G|--------------------|
A|--(9)---(9)---9-77--|
D|--(7)---(7)---7-55--|
E|--(7)---(7)---7-55--|


Solo - Parte 3:
(Acá parece que sólamente toca el bajo, pero si se escucha bien,
está la guitarra muy a fondo, y hace lo mismo que el bajo)

E|----------------------------|---------------------------------|
B|----------------------------|---------------------------------|
G|----------------------------|---------------------------------|
A|-----------------------(0)--|-----------------------(0)--(2)--|
D|--------------0-(2)--4------|--------------0-(2)--4-----------|
E|--(0)--2-(3)----------------|--(0)--2-(3)---------------------|

E|----------------------------|
B|----------------------------|
G|----------------------------|
A|-----------------------(0)--|
D|--------------0-(2)--4------|
E|--(0)--2-(3)----------------|


Solo - Parte 4:

E|--------------------|
B|-----0-2--3-5--7-8--|
G|--3-----------------|
A|--------------------|
D|--------------------|
E|--------------------|


Verso:
(Repite Intro - Parte 1)

De regreso a Octubre
(desde Octubre)
Sin un estandarte, de mi parte.


Estrofa:
(Repite Intro - Parte 2, nada más que el ultimo riff, en vez
de ser x2, es x3)

Te prefiero igual
internacional.


Final:

E|-----------------|----------|--|
B|--8--------6--7--|----------|--|
G|-----7--6--------|----------|--|
A|-----------------|-------9--|x3|
D|-----------------|--(7)-----|--|
E|-----------------|--(7)-----|--|

E|--------------------------------------------|
B|--8-----------------------------------------|
G|-----7--6-----------------------------------|
A|-----------8--9-----------------------------|
D|-----------------9--7------------------(2)--|
E|-----------------------10--9--7--6--2-------|


Eso es todo. Cualquier duda, pregunta: emanueldelr@
Saludos!

            
            
Suggest correction
Creating personal tab
Creating personal tab
You can edit any tab online and save it as your Personal.

You can edit, replace or remove any tab part or add personal notes – all changes will be seen only by you.

Personal tabs can be accessed anytime from any device, even offline.
Learn more »
Give kudos to tab author, rate the tab!
1 2 3 4 5
comments
print report bad tab
guest
Wanna post a correction for this tab? Suggest correction