Oops, an error
Loading. Please wait.

Gualicho chords

version 2
version 2

Whole song

136 views 1 this week
no commentswrite comment
1 2 3 4 5
3 more votes to show rating
add to favorites
×
Save as Personal and add changes to this tab that will be seen only by you. Learn more ›
×
You can save this tab as Personal to edit and correct it or add notes. All changes will be seen only by you. Learn more »
launch autoscroll
font size
0
reset
transpose
0
reset
simplify chords
display chords
guitar tuner
edit
Autoscroll
slow
fast
+/-
esc
set tempo
stop
Strumming
There is no strumming pattern for this song yet. and get +5 IQ
Bueno, este es mi primer aporte en La Cuerda
y por eso me asegure de que sea perfecto.

El tema arranca con la siguiente intro:
1|------------------------------------------------------------------------>
2|------------------------------------------------------------------------>
3|-------2-----------2-4--4-2-0-2----------------------------------------->
4|----0-----4-----0-------------------0--2--4--4--2--0-2-4-2-0----------0->
5|-0-----------0--------------------0--------------------------2--2-0-2--->
6|------------------------------------------------------------------------>

Ahora es muy simple.. El tema empieza con el acorde D..

Acorde D:
1|-------|---X---|-------|-------->
2|-------|-------|---X---|-------->
3|-------|---X---|-------|-------->
4|-------|-------|-------|-------->
5|-------|-------|-------|-------->
6|-------|-------|-------|-------->

Despues cambia al acorde Dsus4 al que vamos a llamar D1..

Acorde D1:
1|-------|---X---|---X---|-------->
2|-------|-------|---X---|-------->
3|-------|---X---|-------|-------->
4|-------|-------|-------|-------->
5|-------|-------|-------|-------->
6|-------|-------|-------|-------->

Luego va D, y sigue con este que vamos a llamar D2..

Acorde D2:
1|-------|-------|-------|-------->
2|-------|-------|---X---|-------->
3|-------|---X---|-------|-------->
4|-------|-------|-------|-------->
5|-------|-------|-------|-------->
6|-------|-------|-------|-------->

Y seguimos con D.

Ahora voy a indicar con (*) la cantidad de
rasguidos que hay que hacer por acorde..
Un ejemplo:

D  ****
D1 *

Significa que son cuatro rasguidos en D y un rasguido en D1. Ahora si..

D  ****
D1 *
D  ***
D2 *
D  *

Empieza el tema..


D/D1/D/D2/D - Am - C    (x3)

Em..

D/D1/D/D2/D            Am   C
           El "zumba" se colgo
D/D1/D/D2/D           Am   C
           del bondi a Finisterre
D/D1/D/D2/D        Am   C
           rajando del amor
D/D1/D/D2/D             Am   C
           detras de un beso nuevo

Las siguientes tablaturas (Em1 y Em2) se pueden reemplazarpor un Em,
pero yo prefiero estas porque para mi gusto es un buen detalle.

Em1:                               Em2:
1|-------------------------->   1|-------------------------->
2|-------------------------->   2|-------------------------->
3|-------------------------->   3|-------------------------->
4|--------2----------------->   4|--------2/0--------------->
5|----0/2------------------->   5|----0/2------------------->
6|--0----------------------->   6|--0----------------------->


Em1                  G        A      Em
         Con lo que cuesta armar un full
Em2         G         A    Em
         armar algun puto full
Em1        G         A    Em           Em G A
         y jugarlo en este paño, Dios!


D/D1/D/D2/D        Am    C
           Gualicho de olvidar
D/D1/D/D2/D      Am       C
           apretado en las manos
D/D1/D/D2/D         Am   C
           Las despedidas son
D/D1/D/D2/D          Am   C
           de esos dolores dulces


Em1                  G        A      Em
         Con lo que cuesta armar un full
Em2         G         A    Em
         armar algun puto full
Em1        G         A    Em           Em G A
         y jugarlo en este paño, Dios!


Aca hay un solo de trompeta y se acompaña asi ---> [Em-G-A-Em]  [x3]


D/D1/D/D2/D         Am     C
           Caldos de venus que
D/D1/D/D2/D           Am    C
           son como agua bendita
D/D1/D/D2/D            Am           C
           y un par de rounds de amor
D/D1/D/D2/D          Am    C
           con la tele encendida


Em1                  G        A      Em
         Con lo que cuesta armar un full
Em2         G         A    Em
         armar algun puto full
Em1        G         A    Em           Em G A
         y jugarlo en este paño, Dios!


D/D1/D/D2/D          Am    C
           Puede ser chaparron
D/D1/D/D2/D          Am    C
           pero tambien tormenta
D/D1/D/D2/D          Am    C
           No quiero verte mas!
D/D1/D/D2/D        Am    C
           sera asi mi ceguera?


Em1                  G        A      Em
         Con lo que cuesta armar un full
Em2         G         A    Em
         armar algun puto full
Em1        G         A    Em           Em G A
         y jugarlo en este paño, Dios!


Em1                  G        A      Em
         Con lo que cuesta armar un full
Em2         G         A    Em
         armar algun puto full
Em1        G         A    Em           Em G A
         y jugarlo en este paño, Dios!

                         Em
Gualicho de olvidar..!!


                        Espero que les sirva mi aporte   - LaViola23 -

            
            
Suggest correction
Creating personal tab
Creating personal tab
You can edit any tab online and save it as your Personal.

You can edit, replace or remove any tab part or add personal notes – all changes will be seen only by you.

Personal tabs can be accessed anytime from any device, even offline.
Learn more »
Give kudos to tab author, rate the tab!
1 2 3 4 5
comments
print report bad tab
guest
Wanna post a correction for this tab? Suggest correction