Oops, an error
Loading. Please wait.

Ji Ji Ji tab

version 4
version 4

Whole song

63 views 1 this week
no commentswrite comment
1 2 3 4 5
3 more votes to show rating
add to favorites
×
Save as Personal and add changes to this tab that will be seen only by you. Learn more ›
×
You can save this tab as Personal to edit and correct it or add notes. All changes will be seen only by you. Learn more »
launch autoscroll
font size
0
reset
how to read this tab
guitar tuner
edit
Autoscroll
slow
fast
+/-
esc
set tempo
stop
 Ji Ji Ji

Intro:

Intro:
Dm                Em7(b5)           Cdim 7            Dm
|----------------|-----------------|-----------------|-----------------|
|--------------6-|---------------8-|---------------8-|---------------6-|
|--------------7-|---------------7-|---------------6-|---------------7-|
|--------------7-|---------------8-|---------------5-|---------------7-|X2
|5-5-5-5-5-5-5-5-|-7-7-7-7-7-7-7-7-|-4-4-4-4-4-4-4-4-|-5-5-5-5-5-5-5-5-|
|----------------|-----------------|-----------------|-----------------|

Verso 1:

Dm                                   Em7(b5)
 En este film, velado en blanca noche
Cdim7                        Dm
 El hijo tenaz de tu enemigo
                                Em7(b5)
El muy verdugo cena distinguido
Cdim7                                   Dm - C5*
Una noche de cristal que se hace añicos

*: Antes de pasar al estribillo hace un pase con C5

Estribillo:

 F5             C5                                 Riff 1:
 No lo soñé ieeeeeee!                              |---------------|
Bb5                        D5(Riff 1)              |-6-5-----------|
 se enderezó y brindó a tu suerte                  |-----7-5---5-7-|
F5            C5                                   |---------7-----|
 No lo soñé ieeeeeee!                              |---------------|
Bb5                      D5(Riff 1)                |---------------|
 y se ofreció mejor que nunca
Bb5                  F5
 no mires por favor, y no prendas la luz
G5                   A5
 la imagen te desfiguró

 F5                       C5
|-----------|------------|----------------------------|
|-----------|------------|----------------------------|
|-----------|------------|-5---5----------------------|
|3-x-3---x--|-3-x-3---x--|-5-x-5---x--7^5--7-5--------|
|3-x-3---x--|-3-x-3---x--|-3-x-3---x--3----3-3--------|
|1-x-1---x--|-1-x-1---x--|----------------------------|

 Bb5                           D5
|-----------------------------|----------------------------------|
|-----------------------------|----------------------------------|
|-x-3-x--3---x---3-x--3---x---|-7-x--7-x--7-x-7-x----------------|
|-x-3-x--3---x---3-x--3---x---|-7-x--7-x--7-x-7-x---7-7----------|
|-x-1-x--1---x---1-x--1---x--/|-5-x--5-x--5-x-5-x---5-5-0--------|
|-----------------------------|----------------------------------|

 Bb5                F5                      G5
|------------------|-----------------------|----------------------|
|------------------|-----------------------|----------------------|
|-3-x-3---x---3-x-3|-x---------------------|----------------------|
|-3-x-3---x---3-x-3|-x-3-x-3---x---3-x-3--x|-5-x-5---x---5-x-5--x-|
|-1-x-1---x---1-x-1|-x-3-x-3---x---3-x-3--x|-5-x-5---x---5-x-5--x-|
|------------------|---1-x-1---x---1-x-1--x|-3-x-3---x---3-x-3--x-|

A5
|--------------|
|--------------|
|--------------|
|7-7-7-7-7-7777|
|7-7-7-7-7-7777|
|5-5-5-5-5-5555|

(Igual que el Verso 1):
Este film da una imagen exquisita.
Esos chicos son como bombas pequeñitas
el peor camino a la cueva del perico
para tipos que no duermen por la noche

F5              C5
 No lo soñé ieeeeeee!
Bb5                    D5(Riff 1)
 ibas corriendo a la deriva
F5              C5
 No lo soñé ieeeeeee!
Bb5                     D5(Riff 1)
 Los ojos ciegos bien abiertos
Bb5                  F5
 no mires por favor, y no prendas la luz
G5                   A5
 la imagen te desfiguró

Corte: (Dm - Gm - A) X4

Solo:

(Parte 1) X2: (Acompaña el bajo con la Base del verso 1)
|------------------------------------------|----------------------|
|--------------8-10-10-10--8h10p8----------|----------------------|
|------7-9-10---------------------10-9/-7--|-7-7-7-7-6-6-7---9~~~-|
|---7--------------------------------------|----------------------|
|------------------------------------------|----------------------|
|------------------------------------------|----------------------|

|-----------------------------------|
|-----X5----------------------------|
|-(12-10-9)----------9-10-9---------|
|-----------12-11-12-------12-11-12-|
|-----------------------------------|
|-----------------------------------|

(Parte 2) (La base son los acordes del estribillo):
|-----------------------------|------------|-------------10-----10-12~|
|-----------------------------|------------|----------10----13b-------|
|10~-12-10-9h10p9-------------|------------|---10-12b-----------------|
|-----------------10-10-12-10~|10-12-10-12~|12------------------------|
|-----------------------------|------------|--------------------------|
|-----------------------------|------------|--------------------------|

|13h15p13--15-13-12h13p12-----------|
|------------------------13-13-15-13|
|-----------------------------------|
|-----------------------------------|
|-----------------------------------|
|-----------------------------------|

 ---------------------------10-----------------------|
 ----------10-------------10--13-10------------------|
 --10-12-13--13-12--10-12b---------12b12-10-----10---|
 12---------------12-----------------------12-10--12~|
 ----------------------------------------------------|
 ----------------------------------------------------|

|-15b-15b---15b-13-15b-15b--|15b-13--15b-13---|------20b-20b-20-|
|---------------------------|--------------15-|---18------------|
|---------------------------|-----------------|-19--------------|
|---------------------------|-----------------|-----------------|
|---------------------------|-----------------|-----------------|
|---------------------------|-----------------|-----------------|


(Igual que el Verso 1):
El montaje final es muy curioso
es en verdad realmente entretenido
Vas en la oscura multitud desprevenido
tiranizando a los que te han querido...

 F5             C5
 No lo soñé ieeeeeee!
Bb5                        D5(Riff 2)
 se enderezó y brindó a tu suerte
F5            C5
 No lo soñé ieeeeeee!
Bb5                      D5(Riff 2)
 y se ofreció mejor que nunca
F5              C5
 No lo soñé ieeeeeee!
Bb5                    D5(Riff 2)
 ibas corriendo a la deriva
F5              C5
 No lo soñé ieeeeeee!
Bb5                     D5(Riff 2)
 Los ojos ciegos bien abiertos
Bb5                  F5
 no mires por favor, y no prendas la luz
G5                   A5  A5 Bb5 A5 Bb5 A5 Bb5 A5
 la imagen te desfiguró..uoh..uho..uho..uho


|------------------------------|
|-6-5--------------------------|
|-----7-5---5-7--5---5-7~~~~~~-| Riff 2
|---------7--------7-----------|
|------------------------------|
|------------------------------|


*FINAL:


*Guitarra 1
   [ Gm         |      Dm       |       A       |  Dm   ] Tocar rápido

E]-3-3-3-3-3-3-3|-5-5-5-5-5-5-5-|-5-5-5-5-5-5-5-|-5-5-5-5-5-5-5------|
B]-3-3-3-3-3-3-3|-6-6-6-6-6-6-6-|-5-5-5-5-5-5-5-|-6-6-6-6-6-6-6------|
G]-3-3-3-3-3-3-3|-7-7-7-7-7-7-7-|-6-6-6-6-6-6-6-|-7-7-7-7-7-7-7------|
D]-5-5-5-5-5-5-5|-7-7-7-7-7-7-7-|-7-7-7-7-7-7-7-|-7-7-7-7-7-7-7------|
A]-5------------|-5-------------|-7-------------|-5------------------|
E]-3------------|---------------|-5-------------|--------------------|

*Guitarra 2

E]--3-5-3-6-5-3-|-1-3-1-5-3-1-0-|-------0-3-1-0-|--------------------|
B]--------------|---------------|---2-----------|-3------------------|
G]--------------|---------------|-2-------------|--------------------|
D]--------------|---------------|---------------|--------------------|
A]--------------|---------------|---------------|--------------------|
E]--------------|---------------|---------------|--------------------|

 h: Hammer o Hammer On = ligado ascendente.

 p: Pull Off = ligado descendente.

 ~: Vibrato = vibrar la cuerda con la mano del diapasón.

 b: Bend = Estirar la cuerda para que suene más aguda.

Bueno, aca les dejo el mejor tema de todos los tiempos..

Aguanten Los redondos!!!!!!!!!!!!!

            
            
Suggest correction
Creating personal tab
Creating personal tab
You can edit any tab online and save it as your Personal.

You can edit, replace or remove any tab part or add personal notes – all changes will be seen only by you.

Personal tabs can be accessed anytime from any device, even offline.
Learn more »
Give kudos to tab author, rate the tab!
1 2 3 4 5
comments
print report bad tab
guest
Wanna post a correction for this tab? Suggest correction