Oops, an error
Loading. Please wait.

Nuotatori Professionisti tab

62 views 1 this week
no commentswrite comment
1 2 3 4 5
3 more votes to show rating
add to favorites
×
Save as Personal and add changes to this tab that will be seen only by you. Learn more ›
×
You can save this tab as Personal to edit and correct it or add notes. All changes will be seen only by you. Learn more »
launch autoscroll
font size
0
reset
how to read this tab
guitar tuner
edit
Autoscroll
slow
fast
+/-
esc
set tempo
stop
Intro: Guitarra
E|-----------------||--------------------------------------------------||--|
B|-----------------||--------------------------------------------------||--|
G|-----------------||-----------------------------%--------------%-----||x4|
D|-----------------||--------------------------------------------------||--|
A|-----------------||---(2)-(5)---(4)--2-----2------(5)--2---------(5)-||--|
E|-0-0-0-0-0-0-0-0-||-0-(0)-(3)---(2)--0-0-2-0-3----(3)--0-0-2-3---(3)-||--|

BAJO:
G|-----------------||--------------------------------------------------||--|
D|-----------------||--------------------------------------------------||x4|
A|-----------------||--------------------------------------------------||--|
E|-----------------||-0-(0)-(3)---(2)--0-0-2-0-3----(3)--0-0-2-3---(3)-||--|

Guitarra 2:                 SOL    FA#
E|--------------------|--|
B|--------------------|--|
G|--------------------|X4|
D|-------5555--4444---|--|
A|-------5555--4444---|--|
E|-------3333--2222---|--|


VERSO 1:
   DO           FA#     DO      FA#      DO       SOl    FA#    MI      Fill 1
E|--------0-|------2-|-----0-|------2--|-----0-|------|------|--------|-------------------|
B|------1---|-----2--|----1--|-----2---|----1--|------|------|--------|-5-----------------|
G|----0-----|----3---|---0---|----3----|---0---|------|------|--------|---4-2-------------|
D|---2------|---4----|--2----|---4-----|--2----|---5--|---4--|--------|-------4-5--(2)~~~-|
A|-3--------|--4-----|-3-----|--4------|-3-----|---5--|---4--|-2-(2)--|-------------------|
E|----------|-2------|-------|-2-------|-------|---3--|---2--|-0-(0)--|-------------------|

BAJO:
G|----------|--------|-------|---------|-------|------|------|--------|-------------------|
D|----------|--------|-------|---------|-------|------|------|--------|-------------------|
A|(3)-----3-|--------|(3)--3-|---------|(3)--3-|------|------|--------|---dejar sonar-----|
E|----------|(2)---2-|-------|(2)-3-2-0|-------|--(3)-|--(2)-|-0-(0)--|-------------------|

letra:
------
Cuando la marea los quiere tapar en el corazón de la noche
Pagan con promesas los nenes de oro.


2°VERSO:

Guitarra
E||--------------------------------------------------||--|
B||--------------------------------------------------||--|
G||-----------------------------%--------------%-----||x4|
D||--------------------------------------------------||--|
A||---(2)-(5)---(4)--2-----2------(5)--2---------(5)-||--|
E||-0-(0)-(3)---(2)--0-0-2-0-3----(3)--0-0-2-3---(3)-||--|

BAJO:
G||--------------------------------------------------||--|
D||--------------------------------------------------||x4|
A||--------------------------------------------------||--|
E||-0-(0)-(3)---(2)--0-0-2-0-3----(3)--0-0-2-3---(3)-||--|


Cómo actúan esos tipos felices
Cómo brillan sus muecas festivas
Si acarician pasteles de culo
Sanos, muy fuertes y azucarados.


3° VERSO:

  DO           FA#     DO      FA#      DO       SOl    FA#    MI      Fill 2
E|--------0-|------2-|-----0-|------2--|-----0-|------|------|--------|-------------------------|
B|------1---|-----2--|----1--|-----2---|----1--|------|------|--------|-------------------------|
G|----0-----|----3---|---0---|----3----|---0---|------|------|--------|----------------(9)------|
D|---2------|---4----|--2----|---4-----|--2----|---5--|---4--|--------|----------------(9)------|
A|-3--------|--4-----|-3-----|--4------|-3-----|---5--|---4--|-2-(2)--|---7---10---9---(7)~~----|
E|----------|-2------|-------|-2-------|-------|---3--|---2--|-0-(0)--|-7---7----7---7----------|


Sudar no les cambia la racha, no.
Llevan el juego en la sangre y van.
Descarados, lindos, varoncitos de oro.

ESTRIBILLO:

Guitarra:
     MI        RE        DO      PUNTEO 1      MI         RE      DO     PUNTEO2
E|--------|---------|---------|-------------|-------|---------|-------|------------------------|
B|--------|---------|---------|-------------|-------|---------|-------|------------------------|
G|--(9)---|----(7)--|---(5)---|-------------|-(9)---|----(7)--|---(5)-|------------------------|
D|--(9)---|----(7)--|---(5)---|-2-0-2b------|-(9)---|----(7)--|---(5)-|--------5-5-4-2---------|
A|--(7)---|----(5)--|---(3)---|--------(3)--|-(7)---|----(5)--|---(3)-|3-2-3-5---------5-3-(2)/|
E|--------|---------|---------|-------------|-------|---------|-------|------------------------|
     RE      DO             MI
E||------|-----------||--|----------------------|
B||------|-----------||--|----------------------|
G||--(7)-|--(5)------||X3|----------------------|
D||--(7)-|--(5)------||--|----------dejar sonar-|
A||--(5)-|--(3)-3-2-3||--|--2--(2)--------------|
E||------|-----------||--|--0--(0)--------------|
                                                         
BAJO:                                              _________X3___________
     MI        RE          DO                     |  RE         DO       |    MI
G||--------|---------|-----------------------||--|---------|--------------|---------|
D||-----6--|---------|-----------------------||--|-----4---|--------------|---------|
A||-7-7--7-|-5-7-757-|/-3-3-2-3--333-323-33/-||x2|-5-5---5-|-3-5--5-3-5---|-7--(7)--|
E||--------|---------|-----------------------||--|---------|--------------|---------|


MI        RE        DO        Punteo 1
Viven temiendo despertar    de sus sueños
MI        RE        DO       Punteo 2
Van de vampiros de arrabal


RE       DO
Adidas digitales
RE          DO
Pepsi inyectable (dame más, dame más)
RE        DO            MI
Qué milagroso día el de hoy.


SOLO DE GUITARRA:

BAJO:  (como en Intro)
       MI
G|----------------------||--------------------------------------------------||--|
D|--sigue sonando-------||--------------------------------------------------||x2|
A|---el-MI-de-estrillo--||--------------------------------------------------||--|
E|----------------------||-0-(0)-(3)---(2)--0-0-2-0-3----(3)--0-0-2-3---(3)-||--|


Guitarra:

sobre MI          sobre en LA primera vuelta de bajo
E|---------|-------12---------------|---------------------------------------|---
B|---------|----------12-11-10------|-8-11-(12)~~----12-12-11-10--------8---|---
G|---------|-------------------12-9-|----------------------------12-9-------|---
D|--------0|-2-2~~------------------|---------------------------------9-----|---
A|----0-2--|------------------------|---------------------------------------|---
E|---------|------------------------|---------------------------------------|---

sobre la segunda vuelta de bajo.
E|----------------------12/13--------|------.---------------------------|
B|-8-7--10-8--11-10-10--------(12)~~-|------8--12h11h10h-0-0------------|
G|-----------------------------------|---10------------------12--(9)~~--|
D|-----------------------------------|-12-------------------------------|
A|-----------------------------------|----------------------------------|
E|-----------------------------------|----------------------------------|


VERSO 4:
  DO           FA#     DO      FA#      DO       SOl    FA#    MI      Fill 3
E|--------0-|------2-|-----0-|------2--|-----0-|------|------|--------|------------------------|
B|------1---|-----2--|----1--|-----2---|----1--|------|------|--------|-(5)--------------------|
G|----0-----|----3---|---0---|----3----|---0---|------|------|--------|------(4)---(2)---------|
D|---2------|---4----|--2----|---4-----|--2----|---5--|---4--|--------|----------------(4)-----|
A|-3--------|--4-----|-3-----|--4------|-3-----|---5--|---4--|-2-(2)--|------------------------|
E|----------|-2------|-------|-2-------|-------|---3--|---2--|-0-(0)--|------------------------|

Retiran mientras van ganando.
Ésa es su dulce macumba, 
para nenas que llevan montón de martirio.


VERSO 5: (igual a verso 2)

Guitarra
E||--------------------------------------------------||--|
B||--------------------------------------------------||--|
G||-----------------------------%--------------%-----||x4|
D||--------------------------------------------------||--|
A||---(2)-(5)---(4)--2-----2------(5)--2---------(5)-||--|
E||-0-(0)-(3)---(2)--0-0-2-0-3----(3)--0-0-2-3---(3)-||--|


Esos nenes con superpoderes, 
hoy se trenzan en juego espartano.
Como lenguas de fuego que arrastran
a su paso todo lo que pueden.


VERSO 6 (igual a verso 3)


Le hacen precio a los buenos amigos
por un par de tatuajes masocas
y pagan con promesas los nenes de oro


2do Solo De Guitarra: (fade out en el final)

BAJO:  (como en Intro)
       MI                                     
G|----------------------||--------------------------------------------------||--|
D|--sigue sonando-------||--------------------------------------------------||x6|  en la vuelta 
A|---el-MI-de-verso 6.--||--------------------------------------------------||--|  4 empieza el 
E|----------------------||-0-(0)-(3)---(2)--0-0-2-0-3----(3)--0-0-2-3---(3)-||--|   fade out

Guitarra (solo):
 sobre  MI
E|-------------||----------------------------------------------
B|-------------||---------------8------------------------------
G|--9--12--11--||-(9)~--------7---9----------------------------  falta ...
D|-9-9---9---9-||---------9h7-------9h8h7----------------------
A|-------------||-------------------------10-(7)---------------
E|-------------||----------------------------------------------

            
            
Suggest correction
Creating personal tab
Creating personal tab
You can edit any tab online and save it as your Personal.

You can edit, replace or remove any tab part or add personal notes – all changes will be seen only by you.

Personal tabs can be accessed anytime from any device, even offline.
Learn more »
Give kudos to tab author, rate the tab!
1 2 3 4 5
comments
print report bad tab
guest
Wanna post a correction for this tab? Suggest correction