Oops, an error
Loading. Please wait.

Queso Ruso tab

version 3
version 3

Whole song

Interactive

74 views 1 this week
no commentswrite comment
1 2 3 4 5
3 more votes to show rating
add to favorites
×
Save as Personal and add changes to this tab that will be seen only by you. Learn more ›
×
You can save this tab as Personal to edit and correct it or add notes. All changes will be seen only by you. Learn more »
launch autoscroll
font size
0
reset
how to read this tab
guitar tuner
edit
Autoscroll
slow
fast
+/-
esc
set tempo
stop
Comparto algo de la parte que saque del solo de Queso Ruso
en vivo en Racing 1998
escala Menor Harmonica en B(si)/pentatonica menor en B(si).

e--------------------------------------------
b--------------------------------------------
g-------------------------------------------4
d---2h4---4--2-4-------2-4-5-4-2-0-2-4-------
a----------------------------------------2---
E--------------------------------------------

e--------------------------------------------
b----2h3p2-----------------------------------
g--4-------4--7--9--11-----------------------
d--------------------------------------------
a--------------------------------------------
E--------------------------------------------

Rasgueando y tapando el resto de las cuerdas
e-7--------8---------12--------7-------------
b-7--------8---------12--------7-------------
g--------------------------------------------
d-9--------12--------14--------9-------------
a--------------------------------------------
E--------------------------------------------

e--10b--10b--10b--10b--------7-----7-----7-----7-----7---
b------------------------10b---10b---10b---10b---10b-----
g--------------------------------------------------------
d--------------------------------------------------------
a--------------------------------------------------------
E--------------------------------------------------------

e-----------------
b-------10p7------
g-----------9b---- por varias veces rapido
d-----------------
a-----------------
E-----------------

Continua......


Queso Ruso arreglo del Coro este seria el punteo que hace...

Coro B5 G5 A5 B5 ahora sigue el punteo

e---------------------
b----2-3-2h3p3---2-0--
g--4-----------4-----3
d---------------------
a---------------------
E---------------------

Ahora que recuerdo hay otro arreglo que hay en el tema original
en el verso hace la progresion

VERSO

B5 C#5 tapar cuerdas luego sigue E5  x4

A5 B5  tapar cuerdas luego sigue B5  X2

B5 C#5 tapar cuerdas luego sigue E5 x2


Espero que les sirve la idea fue de compartir lo que anduve sacando...

Suerte!!!

            
            
Suggest correction
Creating personal tab
Creating personal tab
You can edit any tab online and save it as your Personal.

You can edit, replace or remove any tab part or add personal notes – all changes will be seen only by you.

Personal tabs can be accessed anytime from any device, even offline.
Learn more »
Give kudos to tab author, rate the tab!
1 2 3 4 5
comments
print report bad tab
guest
Wanna post a correction for this tab? Suggest correction