Oops, an error
Loading. Please wait.

Rodando tab

version 1
version 1

Whole song

79 views 1 this week
no commentswrite comment
1 2 3 4 5
3 more votes to show rating
add to favorites
×
Save as Personal and add changes to this tab that will be seen only by you. Learn more ›
×
You can save this tab as Personal to edit and correct it or add notes. All changes will be seen only by you. Learn more »
launch autoscroll
font size
0
reset
how to read this tab
guitar tuner
edit
Autoscroll
slow
fast
+/-
esc
set tempo
stop
INTRO:
GUITARRA:
                                        ________________X9__________________   aca la guitarra
   DO         SIb        REm           |  DO         SIb           REm*     |   hace punteo 2
E|---------|---------|----------------|----------|-----------|----------5----|------|-------|
B|---------|---------|-------6-5-6----|----------|-----------|-------5--5-6--|------|-------|
G|---------|---------|-------5-5-5----|----------|-----------|-------5----5--|--DO5-|-SIb5--|
D|----10---|-----8---|----7-----------|-----10---|------8----|----7----------|------|-------|
A|--10--10-|---8---8-|--5-------------|--10---10-|---8----8--|--5------------|------|-------|
E|-8-------|-6-------|--------------6-|-8--------|-6---------|--------------6|------|-------|
                                           ___________X4_________________
GUITARRA 2: en la segunda vuelta          |    punteo 1                  |      punteo 2
e|------------(20)-|-----------(13)~-|--|--------------------|------------|----12-13-15-13-12---|
B|-(13)-(11)-------|-(13)-(11)-------|--|--------------------|------------|(13)-------------(11)|
G|-----------------|-----------------|X2|--10-7----7---------|------------|---------------------|
D|-----------------|-----------------|--|------10----10--8-7-|-0-2h4-2----|---------------------|
A|-----------------|-----------------|--|--------------------|---------5-3|---------------------|
E|-----------------|-----------------|--|--------------------|------------|---------------------|

BAJO:              DO SIb RE            DO        SIb     RE              DO        SIb       
G|-----------|--|---------------|--|-------------------------------|--|---|----------|----------|
D|-silencio--|X2|---------------|X4|-------------------------------|X4|---|----------|----------|
A|-----------|--|---------(5)---|--|--------------------5-5-5-5----|--|---|-3-33-3-33|-1-11-1-11|
E|-----------|--|-(8)-(6)-----6-|--|---8-8-8-8--6-6-6-6----------6-|--|---|----------|----------|


VERSO 1 :
BAJO:RE DO SIb      RE  DO         DO   SIb   RE
G|---------------|---------|     |--------------------|
D|---------------|---------|     |--------------------|
A|--(5)-(3)------|-(5)-(3)-|     |------------(5)-----|X6
E|----------(6)--|---------|     |--(8)--(6)------6---|

GUITARRA 1 COMO INTRO...

Guitarra2 : fill 1

e|--------------|
B|--------------|
G|-----------5~-|
D|--7-5-7--5----|
A|--------------|
E|--------------|


   RE DO  SIb                  RE     DO 
   Rodando,...     montado a un tren especial.
DO  SIb   RE     DO SIb  RE  fill 1
   Rodando,...     en alquiler.
DO SIb RE          DO SIb RE
   Rodando,...     mi amor, elige el lugar.
DO SIb RE           DO SIb RE   fill 1
   Rodando,...     para estallar.


ESTRIBILLO 1:

BAJO:  DO               SIb
G|------------------|----------------------|
D|------------------|----------------------|
A|-333333333333333--|-11111111111111111----|
E|------------------|----------------------|

GUITARRA:

  DO 
   Sienpre estoy marchandome, 
  SIb
   esto no me va a embrujar.


VERSO 2 (igual)

   Rodando,...      a salvo de tu favor.
   Rodando,...      sin orbitar.
   Rodando,...      mi amor elige el lugar
   Rodando,...      sin orientar.


ESTRIBILLO 2: (igual)

   Siempre estoy marchandome,
   esto no me va a embrujar.

  
SOLO DE GUITARRA:

BAJO: DO   SIb   RE
G|--------------------|       |------|--------|
D|--------------------|       |-DO---|-RE-----|X2
A|------------(5)-----|X4     |------|--------|
E|--(8)--(6)------6---|       |------|--------|


GUITARRA: (solo)

e|---------------|-----------|-----------------------------|-------|----------------------------|
B|---------------|-----------|----15-----------------------|-------|-----6--9b-9b-------(9b)----|
G|-------19-(17)-|-19-(14)~~-|-12----12-14-%---10-------9b-|-7-5---|-5-7----------12-10---------|
D|-15-17---------|-----------|--------------------12-10----|-----7-|----------------------------|
A|---------------|-----------|-----------------------------|-------|----------------------------|
E|---------------|-----------|-----------------------------|-------|----------------------------|

e|--12h13p(12)---8h9-8-----8-----|--13-(15b~)---15-13p12----------21b-21b-20-|--15--15-15-(15b~)|
B|---------------------10---(10)~|----------------------15----19-------------|------------------|
G|-------------------------------|-------------------------20----------------|------------------|
D|-------------------------------|-------------------------------------------|------------------|
A|-------------------------------|-------------------------------------------|------------------|
E|-------------------------------|-------------------------------------------|------------------|

e|-15-13p12----|--13-----------|
B|---------(15)|-----15--------|
G|-------------|--------(15~~)-|  
D|-------------|---------------|
A|-------------|---------------|
E|-------------|---------------|


VERSO 3 (igual)

   Rodando,...      montado a un tren especial.
   Rodando,...      sin orientar.
   Rodando,...      a salvo de tu favor.
   Rodando,...      en alquiler


ESTRIBILLO 2: (igual)

  Siempre estoy marchandome,
   esto no me va a embrujar.


PUENTE :

GUITARRA 1:                   ________X3________
e|------|-----|------|       |-----|------|------|
B|------|-----|------|       |-----|------|------|
G|------|-----|------|       |-----|------|------| como intro
D|--RE--|--Do-|--RE--|       |-DO--|-SIb--|--RE--|
A|------|-----|------|       |-----|------|------|
E|------|-----|------|       |-----|------|------|

GUITARRA 2:  [Punteo 1 ]X4


BAJO:  RE   DO      RE                DO   SIb   RE
G|------|---------|---------|     |--------------------|
D|------|---------|---------|     |--------------------|
A|--(5)-|--(3)----|-(5)-----|     |------------(5)-----|X3
E|------|---------|---------|     |--(8)--(6)------6---|

SOLO DE SAXO:

GUITARRA:
e|-------|--------|
B|-------|--------|
G|--DO5--|--SIb5--|X2
D|-------|--------|
A|-------|--------|
E|-------|--------|

BAJO:
BAJO:  DO               SIb
G|------------------|----------------------|
D|------------------|----------------------|
A|-333333333333333--|-11111111111111111----|
E|------------------|----------------------|


VERSO 4: (igual)

   Rodando,...      a salvo de tu favor.
   Rodando,...      sin orbitar.
   Rodando,...      mi amor elige el lugar
   Rodando,...      para estalla.


ESTRIBILLO 3: (igual)

   Siempre estoy marchandome,
   esto no me va a embrujar.


FINAL:
Guitarra
    DO SIb RE         
e|---------------------|--|----------------|
B|-------------6-5-6---|--|----------------|
G|----------7--5-5-5---|X3|-----------(7)--|
D|--10--8---7----------|--|--10---8---(7)--|
A|--10--8---5----------|--|--10---8---(5)--|
E|--8---6------------6-|--|--8----6--------|

BAJO:
G|---------------------|--|----------------|
D|---------------------|X3|----------------|
A|----------5----------|--|-----------(5)--|
E|--8---6-------------6|--|--8----6--------|

fin

            
            
Suggest correction
Creating personal tab
Creating personal tab
You can edit any tab online and save it as your Personal.

You can edit, replace or remove any tab part or add personal notes – all changes will be seen only by you.

Personal tabs can be accessed anytime from any device, even offline.
Learn more »
Give kudos to tab author, rate the tab!
1 2 3 4 5
comments
print report bad tab
guest
Wanna post a correction for this tab? Suggest correction