Oops, an error
Loading. Please wait.

Te Voy A Atornillar tab

version 1
version 1

Whole song

72 views 1 this week
no commentswrite comment
1 2 3 4 5
3 more votes to show rating
add to favorites
×
Save as Personal and add changes to this tab that will be seen only by you. Learn more ›
×
You can save this tab as Personal to edit and correct it or add notes. All changes will be seen only by you. Learn more »
launch autoscroll
font size
0
reset
how to read this tab
guitar tuner
edit
Autoscroll
slow
fast
+/-
esc
set tempo
stop
Intro:                                                                        _____X2______
GUITARRA:   FA#m      PARTE A                      MI                        |  PARTE B    |
E|------|-----------------|----------------|-----------------------------|--|-------------------|
B|------|-----------------|----------------|-----------------------------|--|-------------------|
G|------|-----------------|----------------|-----------------------------|X2|------------------7|
D|------|------4------0---|-----4------0---|------2-2--2-------(2)---2---|--|-7-7-6-7-7-(6)-6-7-|
A|------|--------4--4---4-|-------4--4---4-|----2------------2-----2---2-|--|-5-5-5-5-5-(5)-----|
E|-12-/-|--2-2------------|-2-2------------|0-0----------0-0-------------|--|-------------------|
                                                                                ______X2_____
BAJO:            PARTE A                                                       |  PARTE B    |
G|------|-----------------|----------------|-----------------------------|X2|-------------------|
D|------|------4------0---|-----4------0---|------2-2--2-------(2)---2---|--|-------------------|
A|------|--------4--4---4-|-------4--4---4-|----2------------2-----2---2-|--|-5-5-5-5-5-5-5---8-|
E|-12-/-|--2-2------------|-2-2------------|0-0----------0-0-------------|--|--------------5-7--|


VERSO 1: (con PARTE A):

   FA#m
Te aprieto mucho.
            MI
Te empleo mucho.
      FA#m
Te sirvo mucho.
      MI
Te piso mucho.


POS-VERSO: (PArte B)


 ¿Cómo puede ser que te alboroten mis placeres?


VERSO 2: (CON PARTE A)

     FA#m
Te espumo mucho.
       MI
Te asfixio mucho.
      FA#m
Te parto mucho.
     MI
Te siento mucho.


ESTRIBILLO 1:

GUITARRA:  SIm7        MI                    SIm7        MI   
E|----------------|----------------|--|----------------|-------------|
B|----------------|----------------|--|----------------|-------------|
G|---------(2)----|----------------|X3|---------(2)----|-------------|
D|-----4-4----(4)-|----------------|--|------4-4----4--|--------(2~)-|
A|-2-2------------|--------2-2-----|--|-2-2------------|---4--4------|
E|----------------|-0--4-4-----4-4-|--|----------------|-0-----------|

BAJO:
G|---------(2)----|----------------|--|---------(2)----|-------------|
D|-----4-4----(4)-|----------------|X3|------4-4----4--|--------(2~)-|
A|-2-2------------|--------2-2-----|--|-2-2------------|---4--4------|
E|----------------|-0--4-4-----4-4-|--|----------------|-0-----------|


SIm7 MI                       SIm7
          Yo te quisiera asaltar.
MI                SIm7
Te voy a atornillar.
MI                         SIm7              
Te voy a herir un poquito más.


VERSO 2: (con PARTE A):

 FA#m   MI   FA#m
         MI
Te aprieto mucho.
         FA#m
Te empleo mucho.
        MI
Te asfixio mucho.


POS-VERSO 2: (PArte B)


 ¿Cómo puede ser que te alboroten mis placeres?


VERSO 3: (CON PARTE A)

 FA#m
Te sirvo mucho.
      MI
Te piso mucho.
    FA#m
Te aprie, Te aprie, Te aprie, Te aprie, Te aprie,
        MI
Te aprieto mucho.


ESTRIBILLO 2: (igual)


SIm7 MI                       SIm7
          Yo te quisiera asaltar.
MI                SIm7
Te voy a atornillar.
MI                         SIm7              
Te voy a herir un poquito más.


SOLO DE GUITARRA:

Guitarra 1:

E|------|-----|-----|------|--|    |-----|-------|
B|------|-----|-----|------|--|    |-----|-------|
G|--LA--|--MI-|--RE-|--MI--|X4|    |--Si-|--RE---|
D|------|-----|-----|------|--|    |-----|-------|
A|------|-----|-----|------|--|    |-----|-------|
E|------|-----|-----|------|--|    |-----|-------|

BAJO:                                SI       RE
G|------|-----|-----|------|--|    |--------|----------|
D|------|-----|-----|------|X4|    |--------|----------|
A|------|--7--|-5-5-|-7-7--|--|    |--------|5555555555|
E|--5---|-----|-----|------|--|    |77777777|----------|

solo:
E|-(5)~--7p5--7-5-------------------------|------------------------------------------------
B|-(5)~-----------7-5---------------------|------------------------------------------------
G|---------------------6--7-7p6-----------|------------------------------------------------
D|------------------------------9-7-(7)-4-|------------------------------------------------
A|----------------------------------------|------------------------------------------------
E|----------------------------------------|------------------------------------------------


SOLO DE SAXO:

BAJO:            PARTE A                                                       
G|------|-----------------|----------------|-----------------------------|--|
D|------|------4------0---|-----4------0---|------2-2--2-------(2)---2---|X2|
A|------|--------4--4---4-|-------4--4---4-|----2------------2-----2---2-|--|
E|-12-/-|--2-2------------|-2-2------------|0-0----------0-0-------------|--|

guitarra:  [FA#m- MI-] X2


ESTRIBILLO 3: (igual)


SIm7 MI                       SIm7
          Yo te quisiera asaltar.
MI                SIm7
Te voy a atornillar.
MI                         SIm7              
Te voy a herir un poquito más.


VERSO 5: (con PARTE A):

   FA#m
Te aprieto mucho.
            MI
Te empleo mucho.
      FA#m
Te asficio mucho.
      MI
Te piso mucho.


POS-VERSO: (PArte B)


 ¿Cómo puede ser que te alboroten mis placeres?


VERSO 2: (CON PARTE A)

     FA#m
Te espumo mucho.
       MI
Te asfixio mucho.
      FA#m
   FA#m
Te aprie, Te aprie, Te aprie, Te aprie, Te aprie,
        MI
Te aprieto mucho.


ESTRIBILLO 4: (igual)


SIm7 MI                       SIm7
          Yo te quisiera asaltar.
MI                SIm7
Te voy a atornillar.
MI                         SIm7              
Te voy a herir un poquito más.


FINAL:

GUITARRA:

E|--2------2------2-------|--5-------5------5---------(9)~-|
B|----3------3------3-----|----6-------6------6-------(7)~-|
G|------4------4------4---|------7-------7------7----------|
D|------------------------|--------------------------------|
A|------------------------|--------------------------------|
E|------------------------|--------------------------------|

BAJO    SI                     RE                      FA#
G|------------------------|-------------------------|-------|
D|------------------------|-------------------------|-------|
A|------------------------|-5-5-5-5-5-5-5-5-5-5-5-5-|--(9)--|
E|7-7-7-7-7-7-7-7-7-7-7-7-|-------------------------|-------|

fin.

            
            
Suggest correction
Creating personal tab
Creating personal tab
You can edit any tab online and save it as your Personal.

You can edit, replace or remove any tab part or add personal notes – all changes will be seen only by you.

Personal tabs can be accessed anytime from any device, even offline.
Learn more »
Give kudos to tab author, rate the tab!
1 2 3 4 5
comments
print report bad tab
guest
Wanna post a correction for this tab? Suggest correction