Oops, an error
Loading. Please wait.

Un Pac-Man En El Savoy tab

version 1
version 1

Whole song

46 views 1 this week
no commentswrite comment
1 2 3 4 5
3 more votes to show rating
add to favorites
×
Save as Personal and add changes to this tab that will be seen only by you. Learn more ›
×
You can save this tab as Personal to edit and correct it or add notes. All changes will be seen only by you. Learn more »
launch autoscroll
font size
0
reset
how to read this tab
guitar tuner
edit
Autoscroll
slow
fast
+/-
esc
set tempo
stop
corrigiendo algunos errores de una versión que ya estaba, saludos desde
Puerto Madryn - Chubut (Ezequiel Valdéz)


Intro
    Dm                Gm                     Dm
  |-------------------------------------------------------------------10-10-|
  |-----------------------8-10-11--8-10-11--8-------------------------11-11-|
  |--7-9-10--7-9-10--7-------------------------7-9-10--7-9-10--10-----------|
  |---------------------------------------------------------------12--------|
  |-------------------------------------------------------------------------|
  |-------------------------------------------------------------------------|

Mientras canta el indio.

  Dm                    Gm
  |----------------------------------------------------------------|
  |----------------------------------------------------------------|
  |----------------------------------------------------------------|
  |-------------5-5-3-5--------------------------------------------|
  |--5-5-3-5-------------5-5-3-5-------3---------------------------|
  |------------------------------3-5-6-----------------------------|

Puente
  |----------------------------------------------------------------|
  |----------------------------------------------------------------|
  |----------------------------------------------------------------|
  |---------------7-5-7---7-5-7------5-3-5---5-3-5-----------------|
  |----------------------------------------------------------------|
  |------------5--------5----------3-------3-----------------------|


Intro: Dm Gm

Dm               Gm
  Todo lo que está en mi nube
Dm                Gm
  es nada más que tu sermón fatal.
Dm               Gm
  Si tu grito es un ladrido,
Dm             Gm
  y mi cuchillo es un rayo cruel.

Intro

Toda esa batería
de risa rubia, de barrio especial.
Las nuevas supersticiones
la bobera del nuevo pac-man.

Puente

A7
  Nuestro pac-man no es de nadie,
Gm
  pero el mono es de él.
A7
  A veces gana, a veces pierde
Gm
  (como todo jugador).

(Como en intro)

Un buen par de ojos de vidrio,
y tu mirada tiende a mejorar.
Las nuevas supersticiones
y todo el hambre del nuevo pac-man.

(Dm Gm) (C Bb A7)

Todo lo que está en mi nube...

Toda esa batería...

Nuestro pac-man...

            
            
Suggest correction
Creating personal tab
Creating personal tab
You can edit any tab online and save it as your Personal.

You can edit, replace or remove any tab part or add personal notes – all changes will be seen only by you.

Personal tabs can be accessed anytime from any device, even offline.
Learn more »
Give kudos to tab author, rate the tab!
1 2 3 4 5
comments
print report bad tab
guest
Wanna post a correction for this tab? Suggest correction