Oops, an error
Loading. Please wait.

Un Tal Bridgitte Bardot bass

46 views 1 this week
1 commentread comment
1 2 3 4 5
2 more votes to show rating
add to favorites
×
Save as Personal and add changes to this tab that will be seen only by you. Learn more ›
×
You can save this tab as Personal to edit and correct it or add notes. All changes will be seen only by you. Learn more »
launch autoscroll
font size
0
reset
guitar tuner
edit
Autoscroll
slow
fast
+/-
esc
set tempo
stop
INTRO:(LA-RE-LA-MI-RE-LA) el ajo entra en RE
G|------------------|
D|------44--77--44--|
A|--55--------------|x2
E|------------------|

G|------------------|
D|------------------|
A|------44--77--44--|x2
E|--55--------------|

G|--------------------------------------------------------|
D|------66--99--66------44--77--11------------------------|
A|--77--------------55------------------4--5--6--7--5-6-7-|
E|----------------------------------55--------------------|

Viejo Caryl Chessman

Viejo Caryl Chessman

respira otra vez.
G|------------------|
D|------------------|
A|------44--77--44--|x4
E|--55--------------|

Ya llegó la hora

lubrica tus branquias
G|------------------|
D|------44--77--44--|
A|--55--------------|x2
E|------------------|

respira otra vez.
G|------------------|
D|------------------|
A|------44--77--44--|x2
E|--55--------------|

Viejo Caryl Chessman
G|------------------|
D|------66--99--66--|
A|--77--------------|
E|------------------|

gritaba enfurecido
G|---------------------|
D|------44--77--11-----|
A|--55-----------------|
E|------------------5--|


Un tal Brigitte Bardot. (silencio, conta 6 tiempos
y empieza otra vez con la misma base


Si matas doce pájaros de dos tiros,
si matas doce pájaros de dos tiros,
no es demasiado si son dos tiros,
si matas doce pajaros de dos tiros.
"No es demasiado tarde!"
gritaba nfurecido

un tal Brigitte Bardot.

(SOLO DE GUITARRA: podes seguir con la misma base
o hacer alguna otra cosa, aca les dejo una variacion)
G|--------------------------------|
D|--------------44--55--44--------|
A|------44--77--------------77--44|x2
E|--55----------------------------|

G|--------------44--55--44--------|
D|------44--77--------------77--44|
A|--55----------------------------|
E|--------------------------------|

G|--------------------------------|
D|--------------44--55--44--------|
A|------44--77--------------77--44|
E|--55----------------------------|

G|--------------------------------------------------------|
D|------66--99--66------44--77--11------------------------|
A|--77--------------55------------------4--5--6--7--5-6-7-|
E|----------------------------------55--------------------|


Mano para hombres, mano para hombres
ayer se le dio,
mano para hombres muy dura y pesada
ayer se le dio.
"Mano para hombres",
gritaba enfurecido

un tal Brigitte Bardot.

En el final hace una vuelta mas y termina.

bueno espero que les sirva, nos vemos y aguante los redondos

            
            
Suggest correction
Creating personal tab
Creating personal tab
You can edit any tab online and save it as your Personal.

You can edit, replace or remove any tab part or add personal notes – all changes will be seen only by you.

Personal tabs can be accessed anytime from any device, even offline.
Learn more »
Give kudos to tab author, rate the tab!
1 2 3 4 5
comments
print report bad tab
1 comment total.
0 reply
felip18 10 Oct 17, 2017 11:30 PM

Gracias por subir esto! Aguante los redó!

guest
Wanna post a correction for this tab? Suggest correction