Oops, an error
Loading. Please wait.

Un Tal Bridgitte Bardot tab

version 2
version 2

Whole song

37 views 1 this week
no commentswrite comment
1 2 3 4 5
3 more votes to show rating
add to favorites
×
Save as Personal and add changes to this tab that will be seen only by you. Learn more ›
×
You can save this tab as Personal to edit and correct it or add notes. All changes will be seen only by you. Learn more »
launch autoscroll
font size
0
reset
how to read this tab
guitar tuner
edit
Autoscroll
slow
fast
+/-
esc
set tempo
stop
E|-----------------------||
B|---5-----5------5-5-5--||
G|---7-----7------7-7-7--||
D|---6-----6------6-6-6--||
A|---7-----7-------------||
E|-----------------------||
LA
Viejo Caryl Chessman
Viejo Caryl Chessman
respira otra vez.
RE7
Ya llegó la hora
lubrica tus branquias
LA
respira otra vez.
MI7
Viejo Caryl Chessman
RE7
gritaba enfurecido
                  LA*(SIlencio)    MI7
Un tal Brigitte Bardot.

Si matamos el pájaros de dos tiros,
Si matamos el pájaros de dos tiros,
no es demasiado si son dos tiros,
Si matamos el pájaros de dos tiros,
'No es demasiado tarde!'
gritaba enfurecido
un tal Brigitte Bardot.

solo
e|-/5-5-5--5-5-5------5------(5)--|--/5-5-5--5-5-5-----------5---|
B|-/5-5-5--5-5-5------5------(5)--|--/5-5-5--5-5-5--7------5-----|
G|---------------6h7----6h7-------|-------------------6h7--------|
D|--------------------------------|------------------------------|
A|--------------------------------|------------------------------|
E|--------------------------------|------------------------------|

e|------10----10-----10----10-----|-------------------------10-----|
B|--------10--10-------10--10-----|--10-9-10-9-10-9-10-(10)-10-----|
G|-10h11----11--10h11----11-------|--9--8-9--8-9--8-9--(9)----11-9-|
D|--------------------------------|--------------------------------|
A|--------------------------------|--------------------------------|
E|--------------------------------|--------------------------------|

e|-------------------12-----------|----------12--------------------|
B|-------10--10-12b-(12)-12-10 ---|---10-12-(12)-12-12ba12-10------|
G|-9-9h11--11---------------------|-11-----------------------11-9--|
D|--------------------------------|--------------------------------|
A|--------------------------------|--------------------------------|
E|--------------------------------|--------------------------------|
mano para hombres, mano para hombres
ayer se le dio,
mano para hombres muy dura y pesada
ayer se le dio.
'Mano para hombres',
gritaba enfurecido
un tal Brigitte Bardot.

Viejo Caryl Chessman
Viejo Caryl Chessman
respira otra vez.
Ya llegó la hora
lubrica tus branquias
respira otra vez.
Viejo Caryl Chessman
gritaba enfurecido
Un tal Brigitte Bardot.

E|--------------------|-0------0--|
B|--------------------|-2------2--|
G|---7--5-------------|-0------0--|
D|---------7--5--7----|-2------2--|
A|--------------------|-0------0--|
E|--------------------|-----------|

            
            
Suggest correction
Creating personal tab
Creating personal tab
You can edit any tab online and save it as your Personal.

You can edit, replace or remove any tab part or add personal notes – all changes will be seen only by you.

Personal tabs can be accessed anytime from any device, even offline.
Learn more »
Give kudos to tab author, rate the tab!
1 2 3 4 5
comments
print report bad tab
guest
Wanna post a correction for this tab? Suggest correction