Oops, an error
Loading. Please wait.

Unos Pocos Peligros Sensatos tab

47 views 1 this week
no commentswrite comment
1 2 3 4 5
3 more votes to show rating
add to favorites
×
Save as Personal and add changes to this tab that will be seen only by you. Learn more ›
×
You can save this tab as Personal to edit and correct it or add notes. All changes will be seen only by you. Learn more »
launch autoscroll
font size
0
reset
how to read this tab
guitar tuner
edit
Autoscroll
slow
fast
+/-
esc
set tempo
stop
Intro:
Guitarra y saxo:
                              saxo no                         saxo no
E|--8-9-(12~)-|-9-8--------|------------------|--8-9-(12~)-|-15br-12-14-12-(17)-|-9-8--------|
B|------------|----9p7-----|------------------|------------|--------------------|----9p7-----|
G|------------|-------(9~)-|---9-11b--10-9-11-|------------|--------------------|-------(9~)-|
D|------------|------------|11----------------|------------|--------------------|------------|
A|------------|------------|------------------|------------|--------------------|------------|
E|------------|------------|------------------|------------|--------------------|------------|

------------------|
--------13--------|
---9-11b---(11~)--|X2
11----------------|
------------------|
------------------|

BAJO:
G|----------------------|------------|
D|----------------------|------------|X8
A|----------------7-(5)-|--5-5-5-----|
E|----0--0---0--7-------|--------7-5-|


GUITARRA 2: [MI-RE]X8


VERSO 1:

GUITARRA: 
     MI        SIm        LA              MI
E|--0---(0)-|-2----(2)-|--------------|-(0)--0-0--0--||
B|--0---(0)-|-3----(3)-|-(2)--2--2-2--|-(0)--0-0--0--||
G|--1--1----|-4--4-----|-(2)--2--2-2--|-(1)----------||X2
D|--2-------|-4--------|-(2)--2--2-2--|-(2)----------||
A|--2-------|-2--------|-(0)----------|-(2)----------||
E|--0-------|----------|--------------|-(0)----------||

BAJO:   MI        SIm        LA              MI          MI        SIm        LA            MI
G|----------|----------|--------------|-----9-7-------|----------|----------|------------|-----|
D|----------|----------|--------------|---------9-7---|----------|----------|------------|-----|
A|-(7)------|-(2)-(2)--|--------------|-(7)---------7-|-(7)------|-(2)-(2)--|------------|-(7)-|
E|----------|----------|-(5)---(5)----|---------------|----------|----------|-(5)---(5)--|-----|

MI                    SIm       
Si tus peligros son tan sensatos.
LA                MI
Casi sin arrebatos.
                 SIm
Y sos prudente 
          LA                          MI
en la tiniebla y con los gatos.


ESTRIBILLO 1:

MI

RE                  MI     
Golpe de suerte.

RE  MI

RE                  MI     
Golpe de suerte.

Guitarra y saxo:
                              saxo no                         saxo no
E|--8-9-(12~)-|-9-8--------|------------------|--8-9-(12~)-|-15br-12-14-12-(17)-|-9-8--------|
B|------------|----9p7-----|------------------|------------|--------------------|----9p7-----|
G|------------|-------(9~)-|---9-11b--10-9-11-|------------|--------------------|-------(9~)-|
D|------------|------------|11----------------|------------|--------------------|------------|
A|------------|------------|------------------|------------|--------------------|------------|
E|------------|------------|------------------|------------|--------------------|------------|

------------------|
--------13--------|
---9-11b---(11~)--|X1
11----------------|
------------------|
------------------|

BAJO:
G|----------------------|------------|
D|----------------------|------------|X4
A|----------------7-(5)-|--5-5-5-----|
E|----0--0---0--7-------|--------7-5-|


GUITARRA 2: [MI-RE]X4


VERSO 2: (Igual)

MI                    SIm       
Si vos cuidás que tu animal
 LA                            MI
No nos muestre libremente
               SIm
Lo que ya sabe 
          LA                   MI
del cuento de la muerte.


ESTRIBILLO 2: (Igual)

MI

RE                  MI     
Golpe de suerte.

RE  MI

RE                  MI     
Golpe de suerte.


INTERMEDIO 1:

GUITARRA :
   MI       RE     DO#   DO        SI7                          LA7
E|--(7)--|-(5)--|------|------|-----------------------------|-----------------------------|
B|--(7)--|-(5)--|------|------|-----------------------------|-----------------------------|
G|--(9)--|-(7)--|------|------|-----8-----8--------8-----8--|-----6-----6--------6-----6--|
D|--(9)--|-(7)--|------|------|-----7--x--7--------7--x--7--|-----5--x--5--------5--x--5--|
A|--(7)--|-(5)--|-(4~)-|-(3~)-|--9--9--x--9-----9--9--x--9--|---7-7--x--7-----7--7--x--7--|
E|-------|------|------|------|--7--------------7-----------|---5-------------5-----------|

BAJO: MI     RE    DO#   DO       SI7                           LA7
G|-------|------|------|------|-----------------------------|--------------------------|
D|-------|------|------|------|----------4-4-6---------4-4-6|-----------2--------------|
A|--(7)--|-(5)--|-(4-)-|-(3-)-|------5-6-----------5-6------|-----2-3-4----0-0-2-3-(4)-|
E|-------|------|------|------|--7-7-----------7-7----------|-5-5----------------------|


SOLO DE GUITARRA:
BASE:
 
Guitarra 2: [MI-Re]X8

BAJO:
G|----------------------|------------|
D|----------------------|------------|X8
A|----------------7-(5)-|--5-5-5-----|
E|----0--0---0--7-------|--------7-5-|


REPITE INTERMEDIO:

GUITARRA :
   MI       RE     DO#   DO        SI7                          LA7
E|--(7)--|-(5)--|------|------|-----------------------------|-----------------------------|
B|--(7)--|-(5)--|------|------|-----------------------------|-----------------------------|
G|--(9)--|-(7)--|------|------|-----8-----8--------8-----8--|-----6-----6--------6-----6--|
D|--(9)--|-(7)--|------|------|-----7--x--7--------7--x--7--|-----5--x--5--------5--x--5--|
A|--(7)--|-(5)--|-(4~)-|-(3~)-|--9--9--x--9-----9--9--x--9--|---7-7--x--7-----7--7--x--7--|
E|-------|------|------|------|--7--------------7-----------|---5-------------5-----------|

BAJO: MI     RE    DO#   DO       SI7                           LA7
G|-------|------|------|------|-----------------------------|--------------------------|
D|-------|------|------|------|----------4-4-6---------4-4-6|-----------2--------------|
A|--(7)--|-(5)--|-(4-)-|-(3-)-|------5-6-----------5-6------|-----2-3-4----0-0-2-3-(4)-|
E|-------|------|------|------|--7-7-----------7-7----------|-5-5----------------------|


ESTRIBILLO 3: (igual)
MI

RE                  MI     
Golpe de suerte.

RE  MI

RE                  MI     
Golpe de suerte.

FINAL_

GUITARRA 1 y saxo:                              final
E|-------12-|---|-------12-------12-|--------|---------|
B|-12-13----|---|-12-13----15-14----|--------|---------|
G|----------|X23|-------------------|---MI---|--(9)-/--|
D|----------|---|-------------------|--------|--(9)-/--|
A|----------|---|-------------------|--------|--(7)-/--|
E|----------|---|-------------------|--------|---------|

GUITARRA 2:

[MI - RE ]X4   [MI-RE-LA-MI]

BAJO:
        MI                 RE              MI         RE    LA    MI          MI
G|----------------------|------------|--|-----------------------------|----|--------|
D|----------------------|------------|X4|-----------------------------|-#--|--------|
A|----------------7-(5)-|--5-5-5-----|--|------------5-5-5-0-0-0--(7)-|----|--(7)/--|
E|----0--0---0--7-------|--------7-5-|--|0-0-0-0-0-0------------------|----|--------|

FIN.

            
            
Suggest correction
Creating personal tab
Creating personal tab
You can edit any tab online and save it as your Personal.

You can edit, replace or remove any tab part or add personal notes – all changes will be seen only by you.

Personal tabs can be accessed anytime from any device, even offline.
Learn more »
Give kudos to tab author, rate the tab!
1 2 3 4 5
comments
print report bad tab
guest
Wanna post a correction for this tab? Suggest correction