Oops, an error
Loading. Please wait.

Vencedores Vencidos tab

version 1
version 1

Whole song

Interactive

262 views 3 this week
no commentswrite comment
1 2 3 4 5
3 more votes to show rating
add to favorites
×
Save as Personal and add changes to this tab that will be seen only by you. Learn more ›
×
You can save this tab as Personal to edit and correct it or add notes. All changes will be seen only by you. Learn more »
launch autoscroll
font size
0
reset
how to read this tab
guitar tuner
backing track
0:00
0:00
edit
Autoscroll
slow
fast
+/-
esc
set tempo
stop
INTRO:

CON ARPEGIADO EN
( D5   C5   A#5 )

E/-------------------
B/-------------------
G/--2-----------2----
D/----5--3--5-----3--
A/-------------------
E/-------------------

CON ARPEGIADO EN
( D5   C5   A#5 )

E/--------------------
B/--------------------
G/--------------------
D/--3--2--0--2--3--0--
A/--------------------
E/--------------------

//////////////////////////////////////////////////


E/--------------------------------------
B/--------------------------------------
G/--------------------------------------
D/--0--2--3--2--0-----0--2--3--2--0-----   (X 2)
A/-----------------3-----------------3--
E/--------------------------------------
Y ahora tiro yo porque me toca
en este tiempo de plumaje blanco


E/-----------------------
B/-----------------------
G/--0--2--3--2--0-----0--
D/-----------------3-----  (X 3)
A/-----------------------
E/-----------------------


E/-----------------
B/-----------------
G/--2--3--2--0-----
D/-----------------
A/--------------5--
E/-----------------

de un mudo con tu voz,
de un ciego como yo
vencedores vencidos


//////////////////////////////////////////////////

CON ARPEGIADO EN
D5              C5            A#5
Te has fugado me hago humo den la alarma

E/-------------------
B/-------------------
G/--2-----------2----
D/----5--3--5-----3--
A/-------------------
E/-------------------


CON ARPEGIADO EN
D5             C5             A#5
ensayo general para la farsa actual
teatro antidisturbios
E/--------------------
B/--------------------
G/--------------------
D/--3--2--0--2--3--0--
A/--------------------
E/--------------------


//////////////////////////////////////////////////

E/--------------------------------------
B/--------------------------------------
G/--------------------------------------
D/--0--2--3--2--0-----0--2--3--2--0-----   (X 2)
A/-----------------3-----------------3--
E/--------------------------------------

Se rompe loca mi anatomía
con el humor de los sobrevivientes


E/-----------------------
B/-----------------------
G/--0--2--3--2--0-----0--
D/-----------------3-----  (X 3)
A/-----------------------
E/-----------------------


E/-----------------
B/-----------------
G/--2--3--2--0-----
D/-----------------
A/--------------5--
E/-----------------

de un mudo con tu voz, de un ciego como yo
vencedores vencidos


//////////////////////////////////////////////////
PUENTE: A  G  (         C#  D  D#            )       A  G
              (SOLO LAS NOTAS, NO LOS ACORDES)
//////////////////////////////////////////////////


E/--------------------------------------
B/--------------------------------------
G/--------------------------------------
D/--0--2--3--2--0-----0--2--3--2--0-----   (X 2)
A/-----------------3-----------------3--
E/--------------------------------------
Leyendo diarios en un baño turco
empañando ray bans, mascando un hueso


E/-----------------------
B/-----------------------
G/--0--2--3--2--0-----0--
D/-----------------3-----  (X 3)
A/-----------------------
E/-----------------------


E/-----------------
B/-----------------
G/--2--3--2--0-----
D/-----------------
A/--------------5--
E/-----------------
tu perro, un perro cruel
con la costumbre de
no contentarse con los restos


CON ARPEGIADO EN
D5        C5           A#5
Ovejero que descansa en manto negro

E/-------------------
B/-------------------
G/--2-----------2----
D/----5--3--5-----3--
A/-------------------
E/-------------------


CON ARPEGIADO EN
D5         C5                 A#5
ensayo general para la farsa actual.
teatro antidisturbios
E/--------------------
B/--------------------
G/--------------------
D/--3--2--0--2--3--0--
A/--------------------
E/--------------------


//////////////////////////////////////////////////
BASE PARA EL SOLO:

E/--------------------------------------
B/--------------------------------------
G/--------------------------------------
D/--0--2--3--2--0-----0--2--3--2--0-----   (X 2)
A/-----------------3-----------------3--
E/--------------------------------------


E/-----------------------
B/-----------------------
G/--0--2--3--2--0-----0--
D/-----------------3-----  (X 3)
A/-----------------------
E/-----------------------


E/-----------------
B/-----------------
G/--2--3--2--0-----
D/-----------------
A/--------------5--
E/-----------------


E/--------------------------------------
B/--------------------------------------
G/--------------------------------------
D/--0--2--3--2--0-----0--2--3--2--0-----   (X 2)
A/-----------------3-----------------3--
E/--------------------------------------

    A#  C

//////////////////////////////////////////////////


E/--------------------------------------
B/--------------------------------------
G/--------------------------------------
D/--0--2--3--2--0-----0--2--3--2--0-----   (X 2)
A/-----------------3-----------------3--
E/--------------------------------------

En este rollo de monos de polvo
hemos perdido el rastro unos minutos


E/-----------------------
B/-----------------------
G/--0--2--3--2--0-----0--
D/-----------------3-----  (X 3)
A/-----------------------
E/-----------------------


E/-----------------
B/-----------------
G/--2--3--2--0-----
D/-----------------
A/--------------5--
E/-----------------
un par de monos más,
unos terrícolas
vencedores vencidos.


CON ARPEGIADO EN
D5             C5               A#5
Buena suerte y más que suerte sin alarma
E/-------------------
B/-------------------
G/--2-----------2----
D/----5--3--5-----3--
A/-------------------
E/-------------------


CON ARPEGIADO EN
D5                 C5                     A#5
me voy corriendo a ver que escribe en mi pared
la tribu de mi calle

E/--------------------
B/--------------------
G/--------------------
D/--3--2--0--2--3--0--
A/--------------------
E/--------------------


E/--------------------------------------
B/--------------------------------------
G/--------------------------------------
D/--0--2--3--2--0-----0--2--3--2--0-----   (X 2)
A/-----------------3-----------------3--
E/--------------------------------------
Y ahora tiro yo porque me toca
en este tiempo de plumaje blanco


E/-----------------------
B/-----------------------
G/--0--2--3--2--0-----0--
D/-----------------3-----  (X 3)
A/-----------------------
E/-----------------------


E/-----------------
B/-----------------
G/--2--3--2--0-----
D/-----------------
A/--------------5--
E/-----------------

de un mudo con tu voz,
de un ciego como yo
vencedores vencidos.


///////////////////////////////////////////////


CON ARPEGIADO EN
D5             C5               A#5
Buena suerte y más que suerte sin alarma
E/-------------------
B/-------------------
G/--2-----------2----
D/----5--3--5-----3--
A/-------------------
E/-------------------


CON ARPEGIADO EN
D5                 C5                     A#5
me voy corriendo a ver que escribe en mi pared
la tribu de tu calle

E/--------------------
B/--------------------
G/--------------------
D/--3--2--0--2--3--0--
A/--------------------
E/--------------------


CON ARPEGIADO EN
( D5   C5   A#5 )

la banda de mi calle

E/-------------------
B/-------------------
G/--2-----------2----
D/----5--3--5-----3--
A/-------------------
E/-------------------


CON ARPEGIADO EN
( D5   C5   A#5 )

la tribu de mi calle
E/--------------------
B/--------------------
G/--------------------
D/--3--2--0--2--3--0--
A/--------------------
E/--------------------


/////////////////////////////////////////////


CON ARPEGIADO EN
( D5   C5   A#5 )

E/-------------------
B/-------------------
G/--2-----------2----
D/----5--3--5-----3--
A/-------------------
E/-------------------

CON ARPEGIADO EN
( D5   C5   A#5 )

E/--------------------
B/--------------------
G/--------------------
D/--3--2--0--2--3--0--
A/--------------------
E/--------------------

NOTA FINAL:   D


EXELENTE TEMA PARA TOCAR CON UNA SOLA GUITARRA Y DEMOSTRAR
CUANTO SE PUEDE HACER CON TAN SOLO PRACTICARLO.

            
            
Suggest correction
Creating personal tab
Creating personal tab
You can edit any tab online and save it as your Personal.

You can edit, replace or remove any tab part or add personal notes – all changes will be seen only by you.

Personal tabs can be accessed anytime from any device, even offline.
Learn more »
Give kudos to tab author, rate the tab!
1 2 3 4 5
comments
print report bad tab
guest
Wanna post a correction for this tab? Suggest correction