Oops, an error
Loading. Please wait.

World Of Silence tab

version 1
version 1

Whole song

Interactive

499 views 1 this week
no commentswrite comment
1 2 3 4 5
3 more votes to show rating
add to favorites
×
Save as Personal and add changes to this tab that will be seen only by you. Learn more ›
×
You can save this tab as Personal to edit and correct it or add notes. All changes will be seen only by you. Learn more »
launch autoscroll
font size
0
reset
how to read this tab
guitar tuner
edit
Autoscroll
slow
fast
+/-
esc
set tempo
stop
Author
       world of silence ta by steve morin


 |       |       |       |        |       |       |       |        
|----------------0---------------|--------------------------------|
|--------------------0-----------|--------------------------------|
|------------5-----------5-------|--------------------------------|
|--------6-------------------6---|--------------------------------|
|----8---------------------------|--------------------------------|
|0-------------------------------|--------------------------------|
 
 |       |       |       |        |       |       |       |        
|----------------0---------------|0---------------0---------------|
|--------------------0-----------|----0---------------0-----------|
|------------5-----------5-------|--------5---------------5-------|
|--------6-------------------6---|------------6---------------6---|
|----8---------------------------|--------------------------------|
|0-------------------------------|--------------------------------|
 
 |       |       |       |        |       |       |       |        
|----0---------------------------|--------------------------------|
|----0-----------------------5{--|--------------------------------|
|----5---------------------------|--------------------------------|
|----6---------------------------|--------------------------------|
|8---8---------------------------|--------------------------------|
|----0---------------------------|--------------------------------|
 
 |       |       |        |       |       |        
|--------------0---------|--------------0---------|
|----------0-----0-------|----------0-----0-------|
|------5-----5-----5-----|------5-----5-----5-----|
|--6-----6-----------6---|--6-----6-----------6---|
|----8-----------------8-|----8-----------------8-|
|0-----------------------|0-----------------------|
 
 |       |       |        |       |       |        
|--------------0---------|--------------0---------|
|----------0-----0-------|----------0-----0-----0-|
|------5-----5-----5-----|------5-----5-----5-----|
|--6-----6-----------6---|--6-----6-----------7---|
|----8-----------------8-|----8-------------------|
|0-----------------------|0-----------------------|
 
 |       |       |        |       |       |        
|--------------0---------|--------------0---------|
|----------8-----8-------|----------8-----8-------|
|------10----10----10----|------10----10----10----|
|--11----11----------11--|--11----11----------11--|
|----12----------------12|----12----------------12|
|0-----------------------|0-----------------------|
 
 |       |       |        |       |       |        
|--------------10--------|--------------10--------|
|----------10----10------|----------10----10------|
|------10----10----10----|------10----10----10----|
|--14----14----------14--|--14----14----------14--|
|----12----------------12|----12----------------12|
|10----------------------|10----------------------|
 
 |       |       |        |       |       |        
|--------------7---------|--------------7---------|
|----------8-----8-------|----------8-----8-------|
|------7-----7-----7-----|------7-----7-----7-----|
|--9-----9-----------9---|--9-----9-----------9---|
|----10----------------10|----10----------------10|
|7-----------------------|7-----------------------|
 
 |       |       |        |       |       |        
|--------------0---------|--------------0---------|
|------1---0h1---1-------|----------0-----0-------|
|------------------0-----|------2-----2-----2-----|
|--0-----2-----------4---|--4-----4-----------4---|
|----3-----------------3-|----3-----------------3-|
|0-----------------------|5-----------------------|
 
 |       |       |        |       |       |        
|--------------0---------|------------------------|
|----------0-----0-------|--------3-----------3---|
|------2-----2-----2-----|----4-----4-----4-----4-|
|--4-----4-----------4---|--3---3-------3---3-----|
|----3-------------------|------------------------|
|5---------------------5-|4-----------4-----------|
 
 |        |       |       |        |        |       |       |        
|0-------|------------------------|0-------|------------------------|
|--3-----|--------3-----------3---|--3-----|--------6-----------6---|
|----4---|----4-----4-----4-----4-|----4---|----7-----7-----7-----7-|
|------3-|--3---3-------3---3-----|------3-|--6---6-------6---6-----|
|--------|------------------------|--------|------------------------|
|--------|4-----------4-----------|--------|7-----------7-----------|
 
 |        |       |       |        |        |       |       |        
|0-------|------------------------|0-------|------------------------|
|--6-----|--------6-----------6---|--6-----|----3-----3-----3-----3-|
|----7---|----7-----7-----7-----7-|----7---|--1-----1-----1-----1---|
|------6-|--6---6-------6---6-----|------6-|2-----0-----------------|
|--------|------------------------|--------|------------3-----2-----|
|--------|7-----------7-----------|--------|------------------------|
 
 |       |        |       |        |       |       |        
|----------------|--------0-------|--------0-------0-------|
|----3-----3-----|------3---3-----|------1---0-1-----0-1---|
|--1-----1---1h0-|----4-------4---|----1---------1-------1-|
|----------------|--3-----------3-|--2---------------------|
|0-----2---------|----------------|------------------------|
|----------------|4---------------|0-----------------------|
 
 |       |       |        |       |       |        
|------------------------|------------------------|
|----1h0-----------------|------------------------|
|--1---------------------|------------------------|
|2-----------------------|------------------------|
|------------------------|------------------------|
|------------------------|------------------------|
 
 |       |       |       |        |       |       |       |        
|--0-------0-------0-------0-----|--0-----0-0-------0-------0-----|
|--------1-------0-------3-------|1---------------0-------3-------|
|2-------------------------------|--------------------------------|
|--------------------------------|--------------------------------|
|--------------------------------|--------------------------------|
|--------------------------------|--------------------------------|
 
 |       |       |       |        |       |       |       |        
|--0-------0-------0-------0-----|--0-----0-0-------0-------0-----|
|--------1-------0-------3-------|1---------------9-------10------|
|2-------------------------------|--------------------------------|
|--------------------------------|--------------------------------|
|--------------------------------|--------------------------------|
|--------------------------------|--------------------------------|
 
 |       |       |       |        |       |       |       |        
|--0-------0-------0-------0-----|--0-------0-------0-------0-----|
|--------------------------------|--------------------------------|
|9-------10------7-------9-------|5-------4-------2-------1-------|
|--------------------------------|--------------------------------|
|--------------------------------|--------------------------------|
|--------------------------------|--------------------------------|
 
 |       |       |       |        |       |       |       |        
|--0-----------------------------|--------------------------------|
|----------0-------0-------0-----|--0-------0-------0-------0-----|
|4-------------------------------|--------------------------------|
|--------2-------3-------5-------|3-------2-------0-------2-------|
|--------------------------------|--------------------------------|
|--------------------------------|--------------------------------|
 
 |       |       |       |        |       |       |       |        
|--------------------------------|----------0-------0-------------|
|--0-------0-------0-------------|--------------------------------|
|--------------------------5-----|--5-----------------------5-----|
|3-------2-------6-------7-------|7-------6-------6-------7-------|
|--------------------------------|--------------------------------|
|--------------------------------|--------------------------------|
 
 |       |       |       |        |       |       |       |        
|----------0---------------------|--------------------------------|
|------------------0-------------|----------3-------3-------------|
|--5-----------------------3-----|--3-----------------------3-----|
|7-------6-------6-------5-------|5-------4-------4-------5-------|
|--------------------------------|--------------------------------|
|--------------------------------|--------------------------------|
 
 |       |       |       |        |       |       |       |        
|--------------------------------|----------------0---------0-----|
|--------------------------------|------------------0-------------|
|--3-------2-------2-------2-----|--2-------1-------------2-------|
|5-------3-------3-------2-------|2-------2-----------------------|
|--------------------------------|--------------------------------|
|--------------------------------|--------------------------------|
 
 |       |       |       |        |       |       |       |        
|----------0---------------------|--------------------------------|
|------------------0-------------|----------3-------3-------------|
|--5-----------------------3-----|--3-----------------------3-----|
|7-------6-------6-------5-------|5-------4-------4-------5-------|
|--------------------------------|--------------------------------|
|--------------------------------|--------------------------------|
 
 |       |       |       |        |       |       |       |        
|--------------------------------|----------------0-------0-------|
|--------------------------------|------------------0-----0-------|
|--3-------2-------2-------2-----|--2-------1---------------------|
|5-------3-------3-------2-------|2-------2-----------------------|
|--------------------------------|--------------------------------|
|--------------------------------|--------------------------------|
 
 |       |       |       |        |       |       |       |        
|--0-------0-------0-------0-----|--0-------0-------0-------0-----|
|--------0-------1-------0-------|--------------------------------|
|2-------------------------------|2-------1-----------------------|
|--------------------------------|----------------3-------2-------|
|--------------------------------|--------------------------------|
|--------------------------------|--------------------------------|
 
 |       |       |       |        |       |       |       |        
|--0-------0-------0-------0-----|--0-----------------------------|
|--------------------------------|--------------------------------|
|--------------------------------|--------------------------------|
|0-------------------------------|--------------------------------|
|--------3-------2-------0-------|--------------------------------|
|--------------------------------|4---------------0---------------|
 
 |       |       |       |        
|12{-----------------------------|
|--------------------------------|
|--------------------------------|
|--------------------------------|
|--------------------------------|
|--------------------------------|
 

pompom020366@hotmail.com

            
            
Suggest correction
Creating personal tab
Creating personal tab
You can edit any tab online and save it as your Personal.

You can edit, replace or remove any tab part or add personal notes – all changes will be seen only by you.

Personal tabs can be accessed anytime from any device, even offline.
Learn more »
Give kudos to tab author, rate the tab!
1 2 3 4 5
comments
print report bad tab
guest
You may want to rate the tab now too:
select rating
Wanna post a correction for this tab? Suggest correction