Oops, an error
Loading. Please wait.

Ganas tab

34 views 1 this week
no commentswrite comment
1 2 3 4 5
3 more votes to show rating
add to favorites
×
Save as Personal and add changes to this tab that will be seen only by you. Learn more ›
×
You can save this tab as Personal to edit and correct it or add notes. All changes will be seen only by you. Learn more »
launch autoscroll
font size
0
reset
how to read this tab
guitar tuner
edit
Autoscroll
slow
fast
+/-
esc
set tempo
stop
AKI ESTA LA TAB DE ESTA LINDA CANCION, LA VERDAD ES MUY FACIL ESTO...
INTENTENLO


  C           Am           F          G              C
e-----------------------------------------------------------
B---0-1-3-3/5----0-1-3-3/5---0-1-3-3/5-5-3-3-1-1-0----------
G-------------2------------2-----------------------2-0------
D-----------------------------------------------------------
A-----------------------------------------------------------
E-----------------------------------------------------------


C                 Am
Otra vez, estoy aquí
          F
Mordiéndome los labios
     G
Por volverte a ver

C                  Am
Ya no sé, si pueda más
          F
Soportar esta angustia
           G                C, Am, F, G
De no poderte besar... una vez más.........

  C           Am           F          G              C
e-----------------------------------------------------------
B---0-1-3-3/5----0-1-3-3/5---0-1-3-3/5-5-3-3-1-1-0----------
G-------------2------------2-----------------------2-0------
D-----------------------------------------------------------
A-----------------------------------------------------------
E-----------------------------------------------------------

        C             Am
Un día más, estar sin ti
                F
Sintiendo como el frío
      G
Se apodera de mi piel

   C                Am
Ya no sé, si aguantaré
         F
Tan solo con la pena
      G
Soportarme estas tontas tantas....

C
Ganas, ganas, ganas
         Am
De morderte hasta los dientes
         F
De abrazarte fuertemente
         G
Y no dejar que te me vayas

C
Ganas, ganas, ganas
         Am
De secuestrarte en mi cama
         F
De amarte toda la noche
         G
Y despertar en tus entrañas

            
            
Suggest correction
Creating personal tab
Creating personal tab
You can edit any tab online and save it as your Personal.

You can edit, replace or remove any tab part or add personal notes – all changes will be seen only by you.

Personal tabs can be accessed anytime from any device, even offline.
Learn more »
Give kudos to tab author, rate the tab!
1 2 3 4 5
comments
print report bad tab
guest
Wanna post a correction for this tab? Suggest correction