Oops, an error
Loading. Please wait.

Eudaimonia Overture tab

version 1
version 1

Whole song

Interactive

17,542 views 9 this week
1 commentread comment
1 2 3 4 5
x 8
add to favorites
×
Save as Personal and add changes to this tab that will be seen only by you. Learn more ›
×
You can save this tab as Personal to edit and correct it or add notes. All changes will be seen only by you. Learn more »
launch autoscroll
font size
0
reset
how to read this tab
guitar tuner
backing track
0:00
0:00
edit
Autoscroll
slow
fast
+/-
esc
set tempo
stop
Author
-------------------------------------------------------------------------------
                             Eudaimonia Overture - Paul Gilbert
-------------------------------------------------------------------------------
Tabbed by: Jamie Callanan
Email: shamedog30@hotmail.com

Tuning: Standard

Tapping intro

the first note of each 3 notes is tapped and is like that through the whole intro

e|-------------------------------------------------------------------------|
B|-------------------------------------------------------------------------|
G|---------------------------19p12h17--------19p12h17----------------------|
D|-------------------19p12h17--------19p12h17------------------------------|
A|----------19p12h17-------------------------------------------------------|
E|-19p12h17----------------------------------------------------------------|
   (t)      (t)      (t)     (t)     (t)     (t)

x 3

e|---------19p12h17--------19p12h17--------19p12h17--------19p12h17--------|
B|-19p12h17--------19p12h17--------19p12h17--------19p12h17----------------|
G|-------------------------------------------------------------------------|
D|-------------------------------------------------------------------------|
A|-------------------------------------------------------------------------|
E|-------------------------------------------------------------------------|
x 1

e|-------------------------------------------------------------------------|
B|-------------------------------------------------------------------------|
G|---------------------------19p12h17--------19p12h17----------------------|
D|-------------------19p12h17--------19p12h17------------------------------|
A|----------19p12h17-------------------------------------------------------|
E|-19p12h17----------------------------------------------------------------|
   (t)      (t)      (t)     (t)     (t)     (t)

x 4

e|---------19p12h17--------19p12h17--------19p12h17--------20p13h18--------|
B|-19p12h17--------19p12h17--------19p12h17--------20p13h18--------20p13h18|
G|-------------------------------------------------------------------------|
D|-------------------------------------------------------------------------|
A|-------------------------------------------------------------------------|
E|-------------------------------------------------------------------------|

e|20p13h18---------19p12h17--------19p12h17--------18p11h16-------18p11h16---|
B|--------19p12h17---------19p12h17--------18p11h16--------18p11h16----------|
G|---------------------------------------------------------------------------|
D|---------------------------------------------------------------------------|
A|---------------------------------------------------------------------------|
E|---------------------------------------------------------------------------|

e|---------19p12h17--------19p12h17--------20p13h18--------20p13h18--------|
B|-19p12h17--------19p12h17--------20p13h18--------20p13h18----------------|
G|-------------------------------------------------------------------------|
D|-------------------------------------------------------------------------|
A|-------------------------------------------------------------------------|
E|-------------------------------------------------------------------------|

e|--------21p14h19--------21p14h19--------22p15h19--------22p15h19---------|
B|21p14h19--------21p14h19--------22p15h19--------22p15h19--------22p15h19-|
G|-------------------------------------------------------------------------|
D|-------------------------------------------------------------------------|
A|-------------------------------------------------------------------------|
E|-------------------------------------------------------------------------|

e|22p15h19--------22p15h19--------22p15h17-22p15h17p15h17h19p17p15---------|
B|--------22p15h19--------22p15h19--------------------------------h19-/20~~|
G|-------------------------------------------------------------------------|
D|-------------------------------------------------------------------------|
A|-------------------------------------------------------------------------|
E|-------------------------------------------------------------------------|
                                    gets crazy here, i just tap kinda like this in Pauls
kinda lick then end on a high note

e|-------------------------------------------------------------------------|
B|-------------------------------------------------------------------------|
G|-------------------------------------------------------------------------|
D|--5----------------------------------------------------------------------|
A|--5----------------------------------------------------------------------|
E|-\3----------------------------------------------------------------------|

e|-----15----------------15---------------15----------------------*--------|
B|-15----15--13p12---15----15--13p12--15----15--13p12---15\-------*--------|
G|---12----12-----12---12----12-----12--12----12-----12-12\-------*--------|
D|----------------------------------------------------------------*--------|
A|----------------------------------------------------------------*--------|
E|----------------------------------------------------------------*--------|
                                                            Strum behind nut

e|-----15----------------15---------------15------------------------------|
B|-15----15--13p12---15----15--13p12--15----15--13p12---15\---------------|
G|---12----12-----12---12----12-----12--12----12-----12-12\---------------|
D|------------------------------------------------------------------------|
A|------------------------------------------------------------------------|
E|------------------------------------------------------------------------|

e|-----15----------------15---------------15----------------15------------|
B|-15----15--13p12---15----15--13p12--15----15--13p12---15----15--13p12---|
G|---12----12-----12---12----12-----12--12----12-----12---12----12-----12-|
D|------------------------------------------------------------------------|
A|------------------------------------------------------------------------|
E|------------------------------------------------------------------------|

e|-----15----------------15---------------15----------------15------------|
B|-12----12--15p12---12----12--15p12--13----13--15p13---13----13--15p13---|
G|---12----12-----12---12----12-----12--12----12-----12---12----12-----12-|
D|------------------------------------------------------------------------|
A|------------------------------------------------------------------------|
E|------------------------------------------------------------------------|

e|-----15----------------15---------------15----------------15------------|
B|-15----15--13p12---15----15--13p12--14----14--15p14---14----14--15p14---|
G|---12----12-----12---12----12-----12--14----14-----14---14----14-----14-|
D|------------------------------------------------------------------------|
A|------------------------------------------------------------------------|
E|------------------------------------------------------------------------|

e|-----15----------------15---------------15----------------15------------|
B|-12----12--15p12---12----12--15p12--13----13--15p13---13----13--15p13---|
G|---12----12-----12---12----12-----12--12----12-----12---12----12-----12-|
D|------------------------------------------------------------------------|
A|------------------------------------------------------------------------|
E|------------------------------------------------------------------------|

e|----7----5---8---7---5--------------------------------------------------|
B|--8---8---8---8---8---8------8-----7-----10-----8-----7-----------------|
G|-7-----7---7---7---7-------7---7-----7------7-----7-----7---------------|
D|-------------------------7-------7-----7------7-----7-------------------|
A|------------------------------------------------------------------------|
E|------------------------------------------------------------------------|

e|-----------------------------------------14--12----------10--8-----------|
B|-----15----13----12----13----12--------12------12-------8-----8----------|
G|---12--12----12----12----12----12----12----------12----9-------9---------|
D|-13------13----13----13----13------14------14--------10----10------------|
A|-------------------------------------------------------------------------|
E|-------------------------------------------------------------------------|

e|-----15---------------10-----------8---------8--7p5----------------------|
B|-15----15--13p12---10---10-8p7---8--8-7p5--7--7--------------------------|
G|---12----12-----12---7----7---7---5--5---5--5--5---0---------------------|
D|-------------------------------------------------------------------------|
A|-------------------------------------------------------------------------|
E|-------------------------------------------------------------------------|

e|---3---------------------------------------------------------------------|
B|-3--3-1p0----------x4----------------------------------------------------|
G|--0--0---0---------------------------------------------------------------|
D|-------------------------------------------------------------------------|
A|-------------------------------------------------------------------------|
E|-------------------------------------------------------------------------|

e|-----15----------------15---------------15----------------15------------|
B|-15----15--13p12---15----15--13p12--15----15--13p12---15----15--13p12---|
G|---12----12-----12---12----12-----12--12----12-----12---12----12-----12-|
D|------------------------------------------------------------------------|
A|------------------------------------------------------------------------|
E|------------------------------------------------------------------------|

e|----15----------------15---------------15-----------15-14-12-------------|
B|12----12--15p12---12----12--15p12--13----13--15p13----------15-13-12-----|
G|--12----12-----12---12----12-----12--12----12-----12----------------14-12|
D|-------------------------------------------------------------------------|
A|-------------------------------------------------------------------------|
E|-------------------------------------------------------------------------|

e|-----15----------------15---------------15-----------15----15b17--------|
B|-15----15--13p12---15----15--13p12--14----14--15p14----14---------------|
G|---12----12-----12---12----12-----12--14----14-----14----14-------------|
D|------------------------------------------------------------------------|
A|------------------------------------------------------------------------|
E|------------------------------------------------------------------------|

e|-----15----------------15---------------15-----------17p15--17b19-------|
B|-12----12--15p12---12----12--15p12--13----13--15p13-------15------------|
G|---12----12-----12---12----12-----12--12----12-----12-------------------|
D|------------------------------------------------------------------------|
A|------------------------------------------------------------------------|
E|------------------------------------------------------------------------|

e|----7----5---8---7---5--------------------------------------------------|
B|--8---8---8---8---8---8------8-----7-----10-----8-----7-----------------|
G|-7-----7---7---7---7-------7---7-----7------7-----7-----7---------------|
D|-------------------------7-------7-----7------7-----7-------------------|
A|------------------------------------------------------------------------|
E|------------------------------------------------------------------------|

e|-----------------------------------------14--12----------10--8-----------|
B|-----15----13----12----13----12--------12------12-------8-----8----------|
G|---12--12----12----12----12----12----12----------12----9-------9---------|
D|-13------13----13----13----13------14------14--------10----10------------|
A|-------------------------------------------------------------------------|
E|-------------------------------------------------------------------------|

e|-----15---------------10-----------8---------8--7p5----------------------|
B|-15----15--13p12---10---10-8p7---8--8-7p5--7--7--------------------------|
G|---12----12-----12---7----7---7---5--5---5--5--5---0---------------------|
D|-------------------------------------------------------------------------|
A|-------------------------------------------------------------------------|
E|-------------------------------------------------------------------------|

e|---3-------5p3-3-7p3-3-5p3-3-7p3/17p15-15-19p15-15-17p15-15-19p15-17b19~~|
B|-3--3-1p0----------------------------------------------------------------|
G|--0--0---0---------------------------------------------------------------|
D|-------------------------------------------------------------------------|
A|-------------------------------------------------------------------------|
E|-------------------------------------------------------------------------|


e|------------------------------------------------------------------------|
B|------------------------------------------------------------------------|
G|-7--7--7-7-7-7----------------------------------------------------------|
D|-7--7--7-7-7-7-----------Play this 4 times, listen to get the rhythm----|
A|-5--5--5-5-5-5----------------------------------------------------------|
E|------------------------------------------------------------------------|

e|---------3---------------------------------------------------------------|
B|---------3---------------------------------------------------------------|
G|---------0----12p5h7-9p5h7-12p5h7-14p5h7-12p5h7-14p5h7-16p5h7-17p5h7-16/-|
D|---------0---------------------------------------------------------------|
A|-3-2-0---x---------------------------------------------------------------|
E|-------3-3---------------------------------------------------------------|
                     Tap the first not on each triplet

e|------------------------------------------------------------------------|
B|------------------------------------------------------------------------|
G|-7--7--7-7-7-7----------------------------------------------------------|
D|-7--7--7-7-7-7-----------Play this 4 times, listen to get the rhythm----|
A|-5--5--5-5-5-5----------------------------------------------------------|
E|------------------------------------------------------------------------|

e|---------3---------------------------------------------------------------|
B|---------3---------------------------------------------------------------|
G|---------0---19p5h7-17p5h7-16p5h7-14p5h7-12p5h7-14p5h7-16p5h7-17p5h7-16/-|
D|---------0---------------------------------------------------------------|
A|-3-2-0---x---------------------------------------------------------------|
E|-------3-3---------------------------------------------------------------|
                                   Tap first note again on each


e|------------------------------------------------------------------------|
B|---------------------------------------------------------/15b17---------|
G|-7--7--7-7-7-7--7--7--7-7-7-7--5--5--5-5-5--3--3-3-3-3/-----------------|
D|-7--7--7-7-7-7--7--7--7-7-7-7--5--5--5-5-5--3--3-3-3-3/-----------------|
A|-5--5--5-5-5-5--5--5--5-5-5-5--3--3--3-3-3--1--1-1-1-1/-----------------|
E|--------------------------------------------------------0---------------|

e|-15p12----------------------------/22b24-22~~----------------------------|
B|-------15p12----12---------/17-15----------------------------------------|
G|-------------14----------------------------------------------------------|
D|-------------------14\---------------------------------------------------|
A|-------------------------------------------------------------------------|
E|------------------------0------------------------------------------------|

more soloish fast descending picking that i might figure out later

e|-----------------------------------------------------------------------|
B|-----------------------------------------------------------------------|
G|-----12----12----12----12----------------------------------------------|
D|---12----12----12----12---------------x 2------------------------------|
A|-10----12----14----15----15-14-12--------------------------------------|
E|----------------------------------15-----------------------------------|

e|-----------------------------------------------------------------------|
B|-----------------------------------------------------------------------|
G|-----12---12----12----12-----------------------------------------------|
D|---12---12----12----12-------------------------------------------------|
A|-10----9-----------------3-2-0-----------------------------------------|
E|------------12----10-----------3---------------------------------------|

e|-2--3--7--5--2--3--8-7--2--3--7--5--------------------------------------|
B|-3--3--8--8--3--3--8-8--3--3--8--8--------------------------------------|
G|-2--4--7--7--2--4--9-7--2--4--7--7------0-----0-----0-------------------|
D|--------------------------------------0-----0-----0---------------------|
A|------------------------------------3-----2-----------------------------|
E|------------------------------------------------3-----2-3---------------|

e|-2--3--7--5--2--3--8-7--2--3--7--5------3-----3-----3------------------|
B|-3--3--8--8--3--3--8-8--3--3--8--8----3-----3-----3--------------------|
G|-2--4--7--7--2--4--9-7--2--4--7--7--5-----4----------------------------|
D|------------------------------------------------5------4-5-------------|
A|-----------------------------------------------------------------------|
E|-----------------------------------------------------------------------|


thats all so far, i know its a bit incomplete but i do plan on finishing it within the
week or so, for the bach string skipping outro theres another tab on here that seems
much spot on. Please rate and comment and give me any feedback, positive or negative i 
take it haha.

            
            
Suggest correction
Creating personal tab
Creating personal tab
You can edit any tab online and save it as your Personal.

You can edit, replace or remove any tab part or add personal notes – all changes will be seen only by you.

Personal tabs can be accessed anytime from any device, even offline.
Learn more »
comments
print report bad tab
1 comment total.
0 reply
fakestrat 16 May 22, 2011 07:49 AM

very nice. you've got them all right sounding. 5*

guest
You may want to rate the tab now too:
select rating
Wanna post a correction for this tab? Suggest correction