Oops, an error
Loading. Please wait.

Scarified bass

version 1
version 1

Whole song

Interactive

5,232 views 12 this week
2 commentsread comments
1 2 3 4 5
x 3
add to favorites
×
Save as Personal and add changes to this tab that will be seen only by you. Learn more ›
×
You can save this tab as Personal to edit and correct it or add notes. All changes will be seen only by you. Learn more »
launch autoscroll
font size
0
reset
guitar tuner
backing track
0:00
0:00
edit
Autoscroll
slow
fast
+/-
esc
set tempo
stop
Author
Difficulty
-------------------------------------------------------------------------------
			     "Scarified" live bass --- Racer X
-------------------------------------------------------------------------------

Tabbed By: [travis] 
 
***This is from the youtube video where Paul Gilbert and his 
   bandmates are dressed as astronauts in the studio. In other words, 
   it's a live version.


Tuning: Standard (E A D G) [low to high]


Legend:

h = hammer on
p = pull off
b = bend
__ = hold bend
() = note not picked / bent note back to normal
~ = vibrato / ring
T = tap
! = tremelo pick
/ = slide up
\ = slide down
h/ = pick once
p\ = pick once
/// = keep picking while sliding up
\\\ = keep picking while sliding down


===========================

G|---------------------------------------------------------------6----|
D|---------------------------------------------------------6-7-9------|
A|---------------------------------4-----------------5-7-9------------|
E|-12\-2-2-2-2-2-2-2-2-2-2-/4-5-7----2----2h/4-5-7-9------------------|

===========================

G|----------------------------------------7-6-4-------------------|
D|----------------------------------------------7-6-4-------------|
A|-----------------------------4----------------------7-5-4-------|
E|-2-2-2-2-2-2-2-2-2-2-/4-5-7----2---2h/4-------------------7-5-4-|

===========================

G|-----------------------------------------------------------6-|
D|-----------------------------------------------------6-7-9---|
A|-----------------------------4-----------------5-7-9---------|
E|-2-2-2-2-2-2-2-2-2-2-/4-5-7----2----2h/4-5-7-9---------------|

===========================

G|--------------------------------------------------------9~~~-|
D|------------------------------------------------9-11-12------|
A|-----------------------------4----------9-11-12--------------|
E|-2-2-2-2-2-2-2-2-2-2-/4-5-7----2---2/12----------------------|

===========================

G|---------------------------------------------------------------6----|
D|---------------------------------------------------------6-7-9------|
A|---------------------------------4-----------------5-7-9------------|
E|-12\-2-2-2-2-2-2-2-2-2-2-/4-5-7----2----2h/4-5-7-9------------------|

===========================

G|----------------------------------------7-6-4-------------------|
D|----------------------------------------------7-6-4-------------|
A|-----------------------------4----------------------7-5-4-------|
E|-2-2-2-2-2-2-2-2-2-2-/4-5-7----2---2h/4-------------------7-5-4-|

===========================

G|-----------------------------------------------------------6-|
D|-----------------------------------------------------6-7-9---|
A|-----------------------------4-----------------5-7-9---------|
E|-2-2-2-2-2-2-2-2-2-2-/4-5-7----2----2h/4-5-7-9---------------|

===========================

G|--------------------------------------------------------9~~~-|
D|------------------------------------------------9-11-12------|
A|-----------------------------4----------9-11-12--------------|
E|-2-2-2-2-2-2-2-2-2-2-/4-5-7----2---2/12----------------------|

===========================

G|-----------------------------------------------------------------|
D|-----------------------------------------------------------------|
A|-5-5-5-5-5-5-5-5-6-6-6-6-6-6-6-6-7-7-7-7-7-7-7-7-8-8-8-8-8-8-8-8-|
E|-----------------------------------------------------------------|

===========================

G|---------------------------------------------------------|
D|-------7---7-9p7---7-------------------------------------|
A|-7-8h9---9-------9---9p7-9p7---7-------------0-----------|
E|-----------------------------9---9-8-7-9-7-6----2---15p\-|

===========================

G|-------------------------------------------------------------------------------------------------|
D|-------------------------------------------------------------------------------------------------|
A|-----------------0-0-0-0-0-0-0-0-2-2-2-2-2-2-2-2-5-5-5-5-5-5-5-5---------------------------------|
E|-2-2-2-2-2-2-2-2-------------------------------------------------0-0-0-0-0-0-0-0-4-4-4-4-4-4-4-4-|

===========================

G|-------------------------------------------------------------------------------------------------|
D|-------------------------------------------------4-4-4-4-4-4-4-4---------------------------------|
A|-----------------4-4-4-4-4-4-4-4-5-5-5-5-5-5-5-5-------------------------------------------------|
E|-5-5-5-5-5-5-5-5-------------------------------------------------4-4-4-4-4-4-4-4-7-7-7-7-7-7-7-7-|

===========================

G|-----------------------------------------------------------------|
D|-----------------------------------------------------------------|
A|-4-4-4-4-4-4-4-4-4-4-4-4-4-4-4-4-4-4-4-4-4-4-4-4-4-4-4-4-4-4-4-4-|
E|-----------------------------------------------------------------|

===========================
G|-----------------------------------------------------------------------------|
D|-----------------------------------------------------------------------------|
A|-4-4-4-4-4-4-4-4-4-4-4-4-4!//////16-16-16-16-16-16-16-16-16-16-16-16-16p\-17-|
E|-----------------------------------------------------------------------------|

===========================

   T        T        T        T        T        T        T        T        T        T
G|-------------------18p16h18-19p18p16-------------------16p14h16-18p16p14-------------------|
D|-18p16h18-19p18p16-------------------16p14h16-18p16p14-------------------14p12h14-16p14p12-|
A|-------------------------------------------------------------------------------------------|
E|-------------------------------------------------------------------------------------------|

===========================

                                        .5____
   T        T        T        T        T
G|-14p13h14-16p14p13-16p14h16-18p16p14-18b---(18)p\-|
D|--------------------------------------------------|
A|--------------------------------------------------|
E|--------------------------------------------------|

============================

G|---------------------------------------------------------------6----|
D|---------------------------------------------------------6-7-9------|
A|---------------------------------4-----------------5-7-9------------|
E|-12\-2-2-2-2-2-2-2-2-2-2-/4-5-7----2----2h/4-5-7-9------------------|

===========================

G|----------------------------------------7-6-4-------------------|
D|----------------------------------------------7-6-4-------------|
A|-----------------------------4----------------------7-5-4-------|
E|-2-2-2-2-2-2-2-2-2-2-/4-5-7----2---2h/4-------------------7-5-4-|

===========================

G|-----------------------------------------------------------6-|
D|-----------------------------------------------------6-7-9---|
A|-----------------------------4-----------------5-7-9---------|
E|-2-2-2-2-2-2-2-2-2-2-/4-5-7----2----2h/4-5-7-9---------------|

===========================

G|--------------------------------------------------------9~~~-|
D|------------------------------------------------9-11-12------|
A|-----------------------------4----------9-11-12--------------|
E|-2-2-2-2-2-2-2-2-2-2-/4-5-7----2---2/12----------------------|

===========================

G|-----------------------------------------------------------------|
D|-----------------------------------------------------------------|
A|-5-5-5-5-5-5-5-5-6-6-6-6-6-6-6-6-7-7-7-7-7-7-7-7-8-8-8-8-8-8-8-8-|
E|-----------------------------------------------------------------|

===========================

G|----------14-16-14-16p14----14---------------------------------------------------|
D|-14-15-16----------------16----16p14-16-14----14---------------------------------|
A|-------------------------------------------16----16-14-16p14-14--12--------------|
E|---------------------------------------------------------------------14~~~~~14p\-|

============================

G|-------------------------------------------------------------------------------------------------|
D|-------------------------------------------------------------------------------------------------|
A|-----------------0-0-0-0-0-0-0-0-2-2-2-2-2-2-2-2-5-5-5-5-5-5-5-5---------------------------------|
E|-2-2-2-2-2-2-2-2-------------------------------------------------0-0-0-0-0-0-0-0-4-4-4-4-4-4-4-4-|

===========================

G|-------------------------------------------------------------------------------------------------|
D|-------------------------------------------------4-4-4-4-4-4-4-4---------------------------------|
A|-----------------4-4-4-4-4-4-4-4-5-5-5-5-5-5-5-5-------------------------------------------------|
E|-5-5-5-5-5-5-5-5-------------------------------------------------4-4-4-4-4-4-4-4-7-7-7-7-7-7-7-7-|

===========================

G|-----------------------------------------------------------------|
D|-----------------------------------------------------------------|
A|-4-4-4-4-4-4-4-4-4-4-4-4-4-4-4-4-4-4-4-4-4-4-4-4-4-4-4-4-4-4-4-4-|
E|-----------------------------------------------------------------|

===========================

G|------------------------------------------------------------------------------|
D|------------------------------------------------------------------------------|
A|-6-6-6-6-6-6-6-6-6-6-6-6-6-6-6-6-6-6-6-6-6-6-6-6-6-6-6-6-6-6-6-6--6----7------|
E|----------------------------------------------------------------------------3-|

===========================

G|------------------------------------------------------------------|
D|------------------------------------------------------------------|
A|-------------7~~~~~~~~~~~~~~~(7)p\---------7----7~~~~~~~~~--------|
E|-4---0-0-0-0-----------------------0-0-0-0---0------------0--2~~~-|

===========================

G|------------------------------------------------------------------------|
D|------------------------------------------------------------------------|
A|------------------------------------------------------------------------|
E|-4-4-4-4-2-4-4-4-4-4-4-4-4-2-4-4-4-4-4-4-4-4-2-4-4-4-4-4-4-4-4-2-4-4-4/-|

===========================

G|--------------------------------------------------------------------------------|
D|--------------------------------------------------------------------------------|
A|------------------7----7~~~~~~7-7-7-9-9-9-9h/11-11-11-11-13-14~~~~~~------------|
E|-0-0-0-0-0-0-0-0----0-----------------------------------------------0-0-0--2--2-|

===========================

G|-----------------------------------------------------------------|
D|-----------------------------------------------------------------|
A|-----------------------------------------------------------------|
E|-4-4-4-4-2h4-4-4-4-4-4-4-2h4-4-4-4-4-4-4-2h4-4-4-4-4-4-4-2h4-4-0-|

===========================

G|-----------------------------------------------------------------------------------------|
D|-----------------------------------------------------------------------------------------|
A|-------------1-----2\--------------------------------------------------------------------|
E|-2-----4------------------0-----0-0-----0---0----0----0-0-----0---0----0----0-0----0---0-|

===========================

G|---------------------------------------------------------------------|
D|---------------------------------------------------------------------|
A|---------------------------------------------------------------------|
E|-----------------------------------------------------------------12\-|

===========================

G|-----------------------------------------------------------6-|
D|-----------------------------------------------------6-7-9---|
A|-----------------------------4-----------------5-7-9---------|
E|-2-2-2-2-2-2-2-2-2-2-/4-5-7----2----2h/4-5-7-9---------------|

===========================

G|---------------------------------------7-6-4-----------------------------------------------|
D|---------------------------------------------7-6-4-----------------------------------------|
A|-----------------------------4---------------------7-5--4----------------------------------|
E|-2-2-2-2-2-2-2-2-2-2-/4-5-7----2---2h4---------------------5-5-5-5-5-5-5-5-5-5-5-5-5-5-5-5-|

===========================

G|-------------------------------------------------------------------------------------------------|
D|-------------------------------------------------------------------------------------------------|
A|-------------------------------------------------------------------------------------------------|
E|-5-5-5-5-5-5-5-5-5-5-5-5-5-5-5-3-3-3-3-3-3-3-3-3-3-3-3-3-3-3-3-3-3-3-3-3-3-3-3-3-3-3-3-3-3-3-3-3-|

===========================

G|-------------------------------------------------------------------------------------------------|
D|-------------------------------------------------------------------------------------------------|
A|-------------------------------------------------------------------------------------------------|
E|-4-4-4-4-4-4-4-4-4-4-4-4-4-4-4-4-4-4-4-4-4-4-4-4-4-4-4-4-4-4-4-1-1-1-1-1-1-1-1-1-1-1-1-1-1-1-1-1-|

===========================

G|--------------------------------------------------------|
D|--------------------------------------------------------|
A|--------------------------------------------------------|
E|-1-1-1-1-1-1-1-1-1-1-1-1-1-1-1-2--2-----4-----5-----7---|

===========================
Outro:

G|--------------------------------------------------------|
D|--------------------------------------------------------|
A|-5~~~~~~~~~~~~~~~55555555555555555555555555555555555555-|
E|--------------------------------------------------------|

===========================
Just keep tremelo picking the 5th fret
G|--------------------------------------------------------------------------|
D|--------------------------------------------------------------------------|
A|-555555555555555555555555555555555555555555555555555555555555555555555555-|
E|--------------------------------------------------------------------------|

===========================

G|------------------------|
D|------------------------|
A|-5~~~~~------5~~~~(5)p\-|
E|------------------------|

Please Rate and Comment My Tab.
Thanks.
[travis]

            
            
Suggest correction
Creating personal tab
Creating personal tab
You can edit any tab online and save it as your Personal.

You can edit, replace or remove any tab part or add personal notes – all changes will be seen only by you.

Personal tabs can be accessed anytime from any device, even offline.
Learn more »
Give kudos to tab author, rate the tab!
1 2 3 4 5
comments
print report bad tab
2 comments total.
0 reply
bennyhong 30 Sep 16, 2010 01:11 PM

great tab. This version is awesome

0 reply
paulobruno15a 10 Jan 11, 2016 05:55 PM

Nice tab !!

guest
You may want to rate the tab now too:
select rating
Wanna post a correction for this tab? Suggest correction