Oops, an error
Loading. Please wait.

The Echo Song tab

version 1
version 1

Whole song

Interactive

Video

27,128 views 9 this week
5 commentsread comments
1 2 3 4 5
x 8
add to favorites
×
Save as Personal and add changes to this tab that will be seen only by you. Learn more ›
×
You can save this tab as Personal to edit and correct it or add notes. All changes will be seen only by you. Learn more »
launch autoscroll
font size
0
reset
how to read this tab
guitar tuner
edit
Autoscroll
slow
fast
+/-
esc
set tempo
stop
Author
Difficulty
intermediate
The Echo song

This isn't fancy so don't come here and cry about a problem in the tab (i aint gonna fix 
I wrote this tab with the help of a guitar pro tab of The echo song

I used guitar tab creator http://www.guitartabcreator.com

Effects: Delay pedal (wammy pedal) Tuning:EADGBe

You should play this like this Example: 
and so on....

E|-------------------------------------------------------------------------|
B|-------------------------12----------------------------15-13-12----------|
G|----------12----------12----------------12----------12-------------------|
D|-------14----------14----------------14----------14----------------------|
A|-12-15-------12-15-------------12-15-------12-15-------------------12-15-|
E|----------------------------15----------------------------------15-------|

E|----------------------------------------------14-15----14----15----14----|
B|-------------------12-------------13----15-13-------15----13----13----13-|
G|----12----------12----------12-11----11----------------------------------|
D|-14----------14-------10-12----------------------------------------------|
A|-------12-15-------------------------------------------------------------|
E|-------------------------------------------------------------------------|

E|-------------------------------------------------------------------------|
B|-------------------------12----------------------------15-13-12----------|
G|----------12----------12----------------12----------12-------------------|
D|-------14----------14----------------14----------14----------------------|
A|-12-15-------12-15-------------12-15-------12-15-------------------12-15-|
E|----------------------------15----------------------------------15-------|

E|----------------------------------------------14-15----14----15----14----|
B|-------------------12-------------13----15-13-------15----13----13----13-|
G|----12----------12----------12-11----11----------------------------------|
D|-14----------14-------10-12----------------------------------------------|
A|-------12-15-------------------------------------------------------------|
E|-------------------------------------------------------------------------|

E|------------------------14-15-12-----------------------14-15-12-|
B|---------------------13-----------------------------12----------|
G|-------------11-12-9------------------------11-12-9-------------|
D|----------10------------------------------9---------------------|
A|---9-10-7--------------------------9-10-7-----------------------|
E|-8-------------------------------7------------------------------|

E|--------------------14-15-----------------------14-15-12-|
B|-----------7-8------------17-----------7-8-5-------------|
G|---------------9-14--------------------------12----------|
D|---4-5---7---------------------4-5-2-5-------------------|
A|-------7-------------------------------------------------|
E|-5---------------------------3---------------------------|

E|------------------------14-15-12-----------------------14-15-12-|
B|---------------------13-----------------------------12----------|
G|-------------11-12-9------------------------11-12-9-------------|
D|----------10------------------------------9---------------------|
A|---9-10-7--------------------------9-10-7-----------------------|
E|-8-------------------------------7------------------------------|

E|--------------------14-15-------------------------------------12-14-|
B|-----------7-8------------17-------------------------12-11-14-------|
G|---------------9-14-----------------------------9-11----------------|
D|---4-5---7-------------------------------9-8-11---------------------|
A|-------7-----------------------2-1-4-7-9----------------------------|
E|-5---------------------------2--------------------------------------|

E|-------------------7-8-5----17-15-13----12-14-15----12-14-15-|
B|-----------------6-------13----------12----------12----------|
G|-----------4-5-2---------------------------------------------|
D|---------3---------------------------------------------------|
A|---2-3-0-----------------------------------------------------|
E|-1-----------------------------------------------------------|

E|----13-15-17-20-17-------19----15----12----------------------------------|
B|-13----------------18-------17-------------------------------------------|
G|----------------------17----------16----12-------12----------------------|
D|-------------------------------------------16----------14----------------|
A|----------------------------------------------14----14----10-14----10-14-|
E|----------------------------------------------------------------12-------|

E|-------------------------------------------------------------------------|
B|-------------------------12----------------------------15-13-12----------|
G|----------12----------12----------------12----------12-------------------|
D|-------14----------14----------------14----------14----------------------|
A|-12-15-------12-15-------------12-15-------12-15-------------------12-15-|
E|----------------------------15----------------------------------15-------|

E|----------------------------------------------14-15----14----15----14----|
B|-------------------12-------------13----15-13-------15----13----13----13-|
G|----12----------12----------12-11----11----------------------------------|
D|-14----------14-------10-12----------------------------------------------|
A|-------12-15-------------------------------------------------------------|
E|-------------------------------------------------------------------------|

E|-------------------------------------------------|
B|-------------------------------------------------|
G|----------12----------14----------16----------17-|
D|-------14----------16----------17----------19----|
A|-12-15-------14-17-------15-19-------17-21-------|
E|-------------------------------------------------|

E|-------------------------------------------------|
B|-------------------------------------------------|
G|----------12----------14----------16-19-17-16-12-|
D|-------14----------16----------17----------------|
A|-12-15-------14-17-------15-19-------------------|
E|-------------------------------------------------|

E|-------12-15-------14-17-------15-19-------17-20-|
B|----13----------15----------17----------19-------|
G|-14----------16----------17----------19----------|
D|-------------------------------------------------|
A|-------------------------------------------------|
E|-------------------------------------------------|

E|-19-17-15-0-17-15-14-0-15-14-12-0-14-12-10-0-12-10-8-0-10-8-7-0-8-7-5-0-7-5-3-0-|
B|--------------------------------------------------------------------------------|
G|--------------------------------------------------------------------------------|
D|--------------------------------------------------------------------------------|
A|--------------------------------------------------------------------------------|
E|--------------------------------------------------------------------------------|

E|----------------14----------------14----17----------------12----------------12----15-|
B|-------------12----------------12----15----------------10----------------10----13----|
G|----------14----------------14----------------------12----------------12-------------|
D|-------12----------------12----------------------10----------------10----------------|
A|----14----------------14----------------------12----------------12-------------------|
E|-12----------------12----------------------10----------------10----------------------|

E|-------------10-------------10----13-----------9----12-|
B|-----------8--------------8----11------------7---10----|
G|--------10-------------10------------------9-----------|
D|------8--------------8-------------------7-------------|
A|---10-------------10-------------------9---------------|
E|-8--------------8--------------------7-----------------|

E|----14----16----17----19----17----21----17----19----17----21----17----19-|
B|-13----14----16----17----16----17----16----17----16----17----16----17----|
G|-------------------------------------------------------------------------|
D|-------------------------------------------------------------------------|
A|-------------------------------------------------------------------------|
E|-------------------------------------------------------------------------|

E|---------------------------------------17-19-|
B|------------------------------17-16-19-------|
G|------------------------14-16----------------|
D|---------------14-13-16----------------------|
A|---7-6-9-12-14-------------------------------|
E|-7-------------------------------------------|

E|----17----21----17----19----17----21----17----19-|
B|-16----17----16----17----16----17----16----17----|
G|-------------------------------------------------|
D|-------------------------------------------------|
A|-------------------------------------------------|
E|-------------------------------------------------|

E|------------------------------------------20-22-|
B|---------------------------------20-19-22-------|
G|---------------------------17-19----------------|
D|------------------17-16-19----------------------|
A|----10-9-12-15-17-------------------------------|
E|-10---------------------------------------------|

E|----------------------------------12-14-|
B|-------------------------12-11-14-------|
G|--------------------9-11----------------|
D|-------------9-8-11---------------------|
A|---2-1-4-7-9----------------------------|
E|-2--------------------------------------|

E|----17-20-17----------------17-20-17-------------|
B|-18----------18----------18----------18----------|
G|----------------17-14-------------------17-14----|
D|----------------------15----------------------15-|
A|-------------------------------------------------|
E|-------------------------------------------------|

E|-------------------7-8-5-------------------7-8-5-|
B|-----------------6-----------------------6-------|
G|-----------4-5---------------------4-5-----------|
D|---------3-----7-----------------4-----7---------|
A|---2-3-0-------------------2-3-0-----------------|
E|-1-----------------------2-----------------------|

E|-------------------8-10-7-------------------8-10-7-13-10------|
B|-----------------8------------------------9--------------12-9-|
G|-----------5-7----------------------5-7-----------------------|
D|---------5-----9------------------6-----9---------------------|
A|---3-5----------------------3-5-------------------------------|
E|-3-----7------------------4-----7-----------------------------|

E|-----7-8---------------7-8----------------8-10-----------------8-10------------|
B|---------10----------------10------------------12-------------------12---------|
G|---9--------9-7------9--------9-7------10---------10-9------10---------10-9----|
D|-7--------------10-7--------------10-9-----------------12-9-----------------12-|
A|-------------------------------------------------------------------------------|
E|-------------------------------------------------------------------------------|

E|-----5-7-------------5-7-------------7-8---------------7-8-----------|
B|---------9---------------9---------------10----------------10--------|
G|---7-------7-5-4---7-------7-5-4---9--------9-7------9--------9-7----|
D|-6---------------6---------------7--------------10-7--------------10-|
A|---------------------------------------------------------------------|
E|---------------------------------------------------------------------|

E|-------10-12-------------------10-12-------------|
B|-------------14----------------------14----------|
G|----12----------12-10-------12----------12-10----|
D|-11-------------------14-11-------------------14-|
A|-------------------------------------------------|
E|-------------------------------------------------|

E|-------12-13-------------------12-13-----------------5-7-------------5-7---------|
B|-------------15----------------------15------------------9---------------9-------|
G|----14----------14-12-------14----------14-12------7-------7-5-----7-------7-5---|
D|-12-------------------15-12-------------------15-6-------------9-6-------------9-|
A|---------------------------------------------------------------------------------|
E|---------------------------------------------------------------------------------|

E|------------------------------------------------------------------|
B|------------------------------------------------------------------|
G|---9-----------------------------12----14----------------12----14-|
D|-7-----5---7---10----12----14-10----12-------12----14-10----12----|
A|-----3---5---7----10----12----------------10----12----------------|
E|------------------------------------------------------------------|

E|-----------------------------------------------------------------|
B|-----------------------------------------------------------------|
G|----------------12----14----------12---------10--------9-------7-|
D|----12----14-10----12-------14-10-------12-9------10-7-----9-5---|
A|-10----12----------------12----------10---------8--------7-------|
E|-----------------------------------------------------------------|

E|--------------------------------------------------------------|
B|--------------------------------------------------------------|
G|-------5-------4-------2--------------------------------------|
D|---7-3-----5-2-----3-0-----2---5------------------------------|
A|-5-------3-------2-------0---3-----2---5---7---10----12----14-|
E|---------------------------------0---3---5---7----10----12----|

E|--------------------------------------------15----17----19-|
B|--------------------------12----15----17-12----15----17----|
G|---------------12----14-9----12----14----------------------|
D|----12----14-9----12---------------------------------------|
A|-10----12--------------------------------------------------|
E|-----------------------------------------------------------|

E|-19-12-15----12----19-12-15----12----19-12-15----|
B|-------------------------------------------------|
G|----------16----12----------16----12----------16-|
D|-------------------------------------------------|
A|-------------------------------------------------|
E|-------------------------------------------------|

E|-12----------------------------------|
B|-------------------------------------|
G|----12-16----12----------------------|
D|----------14-------14----------------|
A|----------------14----10-14----10-14-|
E|----------------------------12-------|

E|-----------------------------------------------------------------|
B|-----------------------------------------------------------------|
G|-----------------------------------------------------------------|
D|-----------------------------------------------------------------|
A|-----------------------------------------------------------------|
E|-0-7-6-5-4-3-2-1-0-3-2-1-0-3-2-1-0-7-6-5-4-3-2-1-0-3-2-1-0-3-2-1-|

E|-------------------------------------------------|
B|-------------------------------------------------|
G|-------------------------------------------------|
D|-------------------------------------------------|
A|-------------------------------------------------|
E|-0-7-6-5-4-3-2-1-0-7-6-5-4-3-2-1-0-7-6-5-4-3-2-1-|

E|-----0-----11-----10-----9-----8--8\----0~~----|
B|-----0-----11-----10-----9-----8--8\----0~~----|
G|-----7-----11-----10-----9-----8--8\----11~----|
D|-----5-----11-----10-----9-----8--8\----9~~----|
A|-----7-----11-----10-----9-----8--8\----11~----|
E|-----0----------------------------------0~~----|

            
            
Suggest correction
Creating personal tab
Creating personal tab
You can edit any tab online and save it as your Personal.

You can edit, replace or remove any tab part or add personal notes – all changes will be seen only by you.

Personal tabs can be accessed anytime from any device, even offline.
Learn more »
comments
print report bad tab
5 comments total. Showing first comments.
+1 reply
Syv 20 Dec 21, 2008 04:26 PM

i think it sounds better in Eb(all strings tuned half step down from standard) but great tab, thanks.

0 reply
aural_fixation 10 May 27, 2009 09:10 AM

This is a great tab. I can do this on my Vyper amp. anyone want the settings? message me

0 reply
00bk00bk 10 Jun 25, 2009 06:19 PM

wow this is great

guest
You may want to rate the tab now too:
select rating
Wanna post a correction for this tab? Suggest correction