Oops, an error
Loading. Please wait.

Bogey Music bass

61 views 1 this week
no commentswrite comment
1 2 3 4 5
3 more votes to show rating
add to favorites
×
Save as Personal and add changes to this tab that will be seen only by you. Learn more ›
×
You can save this tab as Personal to edit and correct it or add notes. All changes will be seen only by you. Learn more »
launch autoscroll
font size
0
reset
guitar tuner
edit
Autoscroll
slow
fast
+/-
esc
set tempo
stop
Author
Difficulty
Intro :
G|---------------------------------|---------------------------------|
D|---------------------------------|---------------------------------|
A|---------------------------------|---------------------------------|
E|---------------------------------|---------------------------------|

G|---------------------------------|---------------------------------|
D|---------------------------------|---------------------------------|
A|---------------------------------|---------------------------------|
E|---------------------------------|---------------------------------|

Chorus :
G|---------------------------------|---------------------------------|
D|------------4---7---4------------|------------4---7---4------------|
A|----4---7---------------7---4----|----4---7---------------7---4----|
E|5--------------------------------|5--------------------------------|

G|---------------------------------|---------------------------------|
D|------------4---7---4------------|------------4---7---4------------|
A|----4---7---------------7---4----|----4---7---------------7---4----|
E|5--------------------------------|5--------------------------------|

G|------------4---7---4------------|------------4---7---4------------|
D|----4---7---------------7---4----|----4---7---------------7---4----|
A|5--------------------------------|5--------------------------------|
E|---------------------------------|---------------------------------|

G|------------6---9---6------------|------------6---9---6------------|
D|----6---9---------------9---6----|----6---9---------------9---6----|
A|7--------------------------------|7--------------------------------|
E|---------------------------------|---------------------------------|

G|------------6---9---6------------|------------6---7---6------------|
D|----6---9---------------9---6----|----6---9---------------9---6----|
A|7--------------------------------|7--------------------------------|
E|---------------------------------|---------------------------------|

G|---------------------------------|---------------------------------|
D|------------4---7---4------------|------------4---7---4------------|
A|----4---7---------------7---4----|----4---7---------------7---4----|
E|5--------------------------------|5--------------------------------|

G|---------------------------------|---------------------------------|
D|----2---3---5---7---5---3---5----|7--------------------------------|
A|5--------------------------------|----7---4---7-----------4---7----|
E|---------------------------------|----------------5---7------------|

G|---------------------------------|---------------------------------|
D|----2---2-/-5---7---5-\-3---5----|7--------------------------------|
A|5--------------------------------|----7---4---7-----------4---7----|
E|---------------------------------|----------------5---7------------|

G|---------------------------------|---------------------------------|
D|--------3---5---7---5---3---5----|7--------------------------------|
A|5---7-\--------------------------|----7---4---7-----------4---7----|
E|---------------------------------|----------------5---7------------|

G|---------------------------------|---------------------------------|
D|--------3---5---7---5-\-3---5----|7---------------------------4----|
A|5---7----------------------------|----7---4---7-------4---7--------|
E|---------------------------------|----------------5----------------|

G|---------------------------------|---------------------------------|
D|------------4---7---4------------|------------4---7-----7-7--------|
A|----4---7---------------7---4----|----4---7------------------------|
E|5--------------------------------|5--------------------------------|

G|---------------------------------|---------------------------------|
D|------------4---7---4------------|------------4---7---4------------|
A|----4---7---------------7---4----|----4---7---------------7---4----|
E|5--------------------------------|5--------------------------------|

G|------------4---7---4------------|------------4---5---4------------|
D|----4---7---------------7---4----|----4---7---------------7---4----|
A|5--------------------------------|5--------------------------------|
E|---------------------------------|---------------------------------|

G|------------6---9---6------------|------------6---7---6------------|
D|----6---9---------------9---6----|----6---9---------------9---6----|
A|7--------------------------------|7--------------------------------|
E|---------------------------------|---------------------------------|

G|---------------------------------|---------------------------------|
D|--------2---3---5---7---5---\----|7--------------------------------|
A|----5----------------------------|----7---4---7-----------4---7----|
E|---------------------------------|----------------5---7------------|

G|---------------------------------|---------------------------------|
D|--------3---5---7---5---3---5----|7--------------------------------|
A|5---7----------------------------|----7---4---7-----------4---7----|
E|---------------------------------|----------------5---7------------|

G|---------------------------------|---------------------------------|
D|--------3---5---7---5---3---5----|7--------------------------------|
A|5---7----------------------------|----7-\-4---7-----------4---7----|
E|---------------------------------|----------------5---7------------|

G|---------------------------------|---------------------------------|
D|--------3---5---7---5---3---5----|7--------------------------------|
A|5---7----------------------------|----7---4---7-----------4---7----|
E|---------------------------------|----------------5---7------------|

G|---------------------------------|---------------------------------|
D|--------3---5---7---5---3---5----|7--------------------------------|
A|5---7----------------------------|----7---4---7-----------4---7----|
E|---------------------------------|----------------5---7------------|

G|---------------------------------|---------------------------------|
D|------------4---7---4------------|------------4---7---4------------|
A|----4---7---------------7---4----|----4---7---------------7---4----|
E|5--------------------------------|5--------------------------------|

G|------------4---7---4------------|------------4---5---4------------|
D|----4---7---------------7---4----|----4---7---------------7---4----|
A|5--------------------------------|5--------------------------------|
E|---------------------------------|---------------------------------|

G|------------6---9---6------------|------------6---7---6------------|
D|----6---9---------------9---6----|----6---9---------------9---6----|
A|7--------------------------------|7--------------------------------|
E|---------------------------------|---------------------------------|

G|---------------------------------|---------------------------------|
D|------------2---3---5---7---5----|7--------------------------------|
A|----4---5------------------------|----7---4---7-----------4---7----|
E|5--------------------------------|----------------5---7------------|

G|---------------------------------|---------------------------------|
D|--------3---5---7---5---3---5----|7--------------------------------|
A|5---7----------------------------|----7---4---7-----------4---7----|
E|---------------------------------|----------------5---7------------|

G|---------------------------------|---------------------------------|
D|--------3---5---7---5---3---5----|7--------------------------------|
A|5---7----------------------------|----7---4---7-----------4---7----|
E|---------------------------------|----------------5---7------------|

G|---------------------------------|---------------------------------|
D|--------3---5---7---5---3---5----|7-----------7---------------7----|
A|5---7----------------------------|------3-4-------------3-4--------|
E|---------------------------------|----------------5----------------|

G|---------------------------------|---------------------------------|
D|------------7---7-----------7----|---------------------------------|
A|------3-4-------------3-4--------|------3-4---7---------3-4---7----|
E|5--------------------------------|5---------------5----------------|

G|---------------------------------|---------------------------------|
D|---------------------------------|--------3---7--------------------|
A|------3-4---7--------------------|5-----4---------5----------------|
E|5---------------5----------------|---------------------------------|

G|---------------------------------|---------------------------------|
D|---------------------------------|--------6---9--------------------|
A|------3-4---7--------------------|7---------------7-----5-4--------|
E|5---------------5----------------|----------------------------7----|

G|---------------------------------|---------------------------------|
D|------------4---7----------------|---------------------------------|
A|----4---7------------------------|---------------------------------|
E|5--------------------------------|---------------------------------|

G|---------------------------------|---------------------------------|
D|----2---3---5-/-7---5---3---5----|7--------------------------------|
A|---------------------------------|----7-\-4---7-----------4---7----|
E|---------------------------------|----------------5---7------------|

G|---------------------------------|---------------------------------|
D|--------3---5---7---5---3---5----|7---------------7---7---7---7----|
A|5---7----------------------------|----7---4---7--------------------|
E|---------------------------------|---------------------------------|

G|---------------------------------|---------------------------------|
D|--------3---5---7---5---4---5----|7--------------------------------|
A|5---7----------------------------|----7---4---7-----------4---7----|
E|---------------------------------|----------------5---7------------|

G|---------------------------------|---------------------------------|
D|--------3---5---7---5---4--------|7--------------------------------|
A|5---7-----------------------7----|----7-------7--------------------|
E|---------------------------------|--------9-------5---5---5---5----|

G|---------------------------------|---------------------------------|
D|--------3---5---7---5---3--------|7---------------------------7----|
A|5---7-----------------------7----|----7---4---7-------4---7--------|
E|---------------------------------|----------------5----------------|

G|---------------------------------|---------------------------------|
D|--------3---5---7---5---3--------|7---7----------------------------|
A|5---7-----------------------7----|--------7---7---4---4------------|
E|---------------------------------|------------------------5---5----|

G|---------------------------------|---------------------------------|
D|----------------3---3---5---5----|7---7----------------------------|
A|5---5---7---7--------------------|--------7---7---4---4------------|
E|---------------------------------|------------------------5---5----|

G|---------------------------------|---------------------------------|
D|--------3---5---7---5---3---5----|7---------------------------7----|
A|5---7----------------------------|----7---4---7-----------7--------|
E|---------------------------------|----------------5----------------|

G|---------------------------------|---------------------------------|
D|--------------------3---5---6----|7--------------------------------|
A|-------4---5---7-----------------|----7-\-4---7-----------4---7----|
E|5--------------------------------|----------------5---7------------|

G|---------------------------------|---------------------------------|
D|--------3---5---7---5---3---5----|7--------------------------------|
A|5---7----------------------------|----7---4---7-----------4---7----|
E|---------------------------------|----------------5---7------------|

G|---------------------------------|---------------------------------|
D|--------3---5---7---5---3---5----|7--------------------------------|
A|5---7----------------------------|---------------------------------|
E|---------------------------------|---------------------------------|

            
            
Suggest correction
Creating personal tab
Creating personal tab
You can edit any tab online and save it as your Personal.

You can edit, replace or remove any tab part or add personal notes – all changes will be seen only by you.

Personal tabs can be accessed anytime from any device, even offline.
Learn more »
Give kudos to tab author, rate the tab!
1 2 3 4 5
comments
print report bad tab
guest
You may want to rate the tab now too:
select rating
Wanna post a correction for this tab? Suggest correction