Oops, an error
Loading. Please wait.

Goodnight Tonight bass

version 1
version 1

Whole song

8,550 views 15 this week
2 commentsread comments
1 2 3 4 5
x 6
add to favorites
×
Save as Personal and add changes to this tab that will be seen only by you. Learn more ›
×
You can save this tab as Personal to edit and correct it or add notes. All changes will be seen only by you. Learn more »
launch autoscroll
font size
0
reset
guitar tuner
edit
Autoscroll
slow
fast
+/-
esc
set tempo
stop
Author
  --------------------------------------------------------------

   PAUL McCARTNEY - GOODNIGHT TONIGHT. Released as a single 
                    on March 23rd 1979 w DAYTIME, NIGHTIME 
                    SUFFERING as B side.

  --------------------------------------------------------------

   Bass tab by: PJVillanueva



   Many people, including myself, thought at the time that 
   Macca was getting kind of "disco" and rated higher its 
   flip side, DAYTIME, NIGHTIME SUFFERING, which also winks 
   a couple of times to the "Disco World", but nobody can 
   deny that this is a very catchy track and it does have 
   "something" that made it reach NUMBER 4, even without
   the usual airplay. (Disco DJ's didn't play it much and 
   Rock ones didn't know what to do).   




  Don't Get Too Tired For Love 
  Don't Let It End 
  Don't Say Goodnight To Love 
  It May Never Be The Same Again 

  Don't Say It!  
  Don't Say It! 
  Say Anything But Don't Say Goodnight Tonight 

  Don't Say It!  
  Don't Say It! 
  Say Anything But Don't Say Goodnight Tonight 

  Don't Say It!  
  Don't Say It! 
  You Can Say Anything But Don't Say Goodnight Tonight 

  Don't Say It!  
  Don't Say It! 
  Say Anything But Don't Say Goodnight Tonight 

  Don't Say It!  
  Don't Say It! 
  Say Anything But Don't Say Goodnight Tonight 

  Don't Get Too Tired For Love 
  Don't Let It End 
  Don't Say Goodnight To Love 
  It's A Feeling That May Never End 

  Don't Say It!  
  Don't Say It! 
  Say Anything But Don't Say Goodnight Tonight 

  Don't Say It!  
  Don't Say It! 
  Say Anything But Don't Say Goodnight Tonight 

  Don't Say It!  
  Don't Say It! 
  You Can Say Anything But Don't Say Goodnight Tonight 




    INTRO
                                     
    X                               X
  e|3-3-3-3 3-3-3-3 3-3-3-3 3-3-3-3|0-0-0-0 0-0-0-0 0-0-0-0 0-0-0-0|
  B|3-3-3-3-3-3-3-3-3-3-3-3-3-3-3-3|1-1-1-1-1-1-1-1-1-1-1-1-1-1-1-1|
  G|4-4-4-4-4-4-4-4-4-4-4-4-4-4-4-4|2-2-2-2-2-2-2-2-2-2-2-2-2-2-2-2|
  D|-------------------------------|-------------------------------|
  A|-------------------------------|-------------------------------|
  E|-------------------------------|-------------------------------|

  e|3-3-3-3 3-3-3-3 3-3-3-3 3-3-3-3|3-3-3-3 3-3-3-3 3-3-3-3 3-3-3-3|
  B|5-5-5-5-5-5-5-5-5-5-5-5-5-5-5-5|5-5-5-5-5-5-5-5-5-5-5-5-5-5-5-5|
  G|4-4-4-4-4-4-4-4-4-4-4-4-4-4-4-4|5-5-5-5-5-5-5-5-5-5-5-5-5-5-5-5|
  D|-------------------------------|-------------------------------|
  A|-------------------------------|-------------------------------|
  E|-------------------------------|-------------------------------|


    X                               X                       x   x
  e|3-3-3-3 3-3-3-3 3-3-3-3 3-3-3-3|0-0-0-0 0-0-0-0 0-0-0-0 0-0-0-0|
  B|3-3-3-3-3-3-3-3-3-3-3-3-3-3-3-3|1-1-1-1-1-1-1-1-1-1-1-1-1-1-1-1|
  G|4-4-4-4-4-4-4-4-4-4-4-4-4-4-4-4|2-2-2-2-2-2-2-2-2-2-2-2-2-2-2-2|
  D|-------------------------------|-------------------------------|
  A|-------------------------------|-------------------------------|
  E|-------------------------------|-------------------------------|

  e|3-3-3-3 3-3-3-3 3-3-3-3 3-3-3-3|3-3-3-3 3-3-3-3 3-3-3-3 3-3-3-3|
  B|5-5-5-5-5-5-5-5-5-5-5-5-5-5-5-5|5-5-5-5-5-5-5-5-5-5-5-5-5-5-5-5|
  G|4-4-4-4-4-4-4-4-4-4-4-4-4-4-4-4|5-5-5-5-5-5-5-5-5-5-5-5-5-5-5-5|
  D|-------------------------------|-------------------------------|
  A|-------------------------------|-------------------------------|
  E|-------------------------------|-------------------------------|


    00:08
  e|3------ ------- ------- -------|------- ------- ------- -------|
  B|3------------------------------|-------------------------------|
  G|4------------------------------|-------------------------------|
  D|-------------------------------|-------------------------------|
  A|-------------------------------|-------------------------------|
  E|-------------------------------|-------------------------------|

  e|3------ ------- ------- -------|------- ------- ------- -------|
  B|5------------------------------|-------------------------------|
  G|4------------------------------|-------------------------------|
  D|-------------------------------|-------------------------------|
  A|-------------------------------|-------------------------------|
  E|-------------------------------|-------------------------------|

  G|------7 ------- ------7 -------|------7 7------ ----6-\ -------|
  D|------0---------------0--------|--------0-----------7-\--------|
  A|-------------------------------|-------------------------------|
  E|0---------------0--------------|0---------------0--------------| 



  G|------7 7-\---- ------7 7-\----|------7 7-\---- ----6-\ -------|
  D|--------0---------------0------|--------0-----------7-\--------|
  A|-------------------------------|-------------------------------|
  E|0---------------0--------------|0---------------0--------------|



  G|------7 7-\---- ------7 7-\----|------7 7-\---- ----6-\ -------|
  D|--------0---------------0------|--------0-----------7-\--------|
  A|-------------------------------|-------------------------------|
  E|0---------------0--------------|0---------------0--------------|



  G|------7 7-\---- ------7 7-\----|------- 1211--9 ------- -------|
  D|--------0---------------0------|----------\---------11-\-------|
  A|-------------------------------|-------------------------------|
  E|0---------------0--------------|0------------------------------|


    00:23 
  G|------- ------- ------- -------|------- ------- ------- -------|
  D|-------------------------------|-------------------------------|
  A|----------------2-----------2-3|4-----4---4-----4--------------|
  E|0-----0---0-4------------------|------------4---------------4-3|



  G|------- ------- ------- -------|------4 ------- ------- -------|
  D|------4---------------4--------|-------------------------------|
  A|----------------------------4-3|2-----------2---2-----------2H4|
  E|2-----------2---2--------------|-------------------------------|
                                         Oooooooooooooooooooooooooo


  G|------- ------- ------- -------|------- ------- ------- -------|
  D|-------------------------------|-------------------------------|
  A|----------------2-----------2-3|4-----4---4-----4--------------|
  E|0-----0---0-4------------------|------------4---------------4-3|
    ooooooooooooooooooooohhh   Oooooooooooooooooooohhh


  G|------- ------- ------- -------|------4 ------- ------- 4------|
  D|------4---------------4--------|-------------------------------|
  A|----------------------------4-3|2-----------2---2--------------|
  E|2-----------2---2--------------|-------------------------------|
        Oooooooooooohhh        Oooooooooooooooooooooooooooooooooooo

    00:39
  G|------- ------- ------- -------|------- ------- ------- -------|
  D|-------------------------------|-------------------------------|
  A|----------------2-----------2-3|4-----4---4-----4--------------|
  E|0-----0---0-4------------------|------------4---------------4-3|
    oooooooooohhh             Don't   get                     too


  G|------- ------- ------- -------|------4 ------- 4/5---- 4------|
  D|------4---------------4--------|-------------------------------|
  A|----------------------------4-3|2-----------2------------------|
  E|2-----------2---2--------------|-------------------------------|
    tired       for love


  G|------- ------- ------- -------|------- ------- ------- -------|
  D|-------------------------------|-------------------------------|
  A|----------------2-----------2-3|4-----4--(4)----4--------------|
  E|0-----0---0-4------------------|----4-------4---------------4-3|
                              Don't   let                     it


  G|------- ------- ------- -------|------4 ------- ------- 4------|
  D|------4---------------4--------|-------------------------------|
  A|----------------------------4-3|2-----------2---2--------------|
  E|2-----------2---2--------------|-------------------------------|
    end
                                   (Ooooooooooooooooooooooooooooooo

  G|------- ------- ------- -------|------- ------- ------- -------|
  D|-------------------------------|-------------------------------|
  A|----------------2-------2---3--|4-----4---------4--------------|
  E|0-----0---0-4------------------|------------4---------------4-3|
                              Don't   say                     goodnight
    ooooooooohhhh)

  G|------- ------- ------- -------|------4 ------- 4------ -------|
  D|------4---------------4--------|-------------------------------|
  A|----------------------------4-3|2-----------2-----------2------|
  E|2-----------2---2--------------|-------------------------------|
                to  love                                       it


  G|------- ------- ------- -------|------- ------- ------- -------|
  D|-------------------------------|-------------------------------|
  A|--------------------------0----|2---2-----------2----2----2----|
  E|0-----0---------0---3----------|-------------------------------|
    may   never                be the same                       again

                    x     x   x x
  G|------- ------- ------- -------|
  D|2------------------------------|
  A|-------------------------------|
  E|-------------------------------|


    01:08
  G|------- ------- ------- -------|------- ------- ------- -------|
  D|-------------------------------|-------------------------------|
  A|----------------2-----------2/3|4-----4---------4--------------|
  E|0-----0---0-4------------------|------------4---------------4-3|
          Don't         it                Don't         it
                say                             say
              
  G|------- ------- ------- -------|----4-- ------- ------- -------|
  D|------4---------------4--------|-------------------------------|
  A|----------------------------4-3|2-----------2---2-------2------|
  E|2-----------2---2--------------|-------------------------------|
                Say anything    but don't     goodnight           tonight
                                        say

  G|------- ------- ------- -------|------- ------- ------- -------|
  D|-------------------------------|-------------------------------|
  A|----------------2---------2-3--|4-----4---4-----4--------------|
  E|0---------0-4------------------|------------4---------------4-3|
          Don't         it                Don't         it
                say                             say

  G|------- ------- ------- -------|------4 ------- ----4-- 4/5----|
  D|------4---------------4--------|-------------------------------|
  A|----------------------------2--|2-----------2---2--------------|
  E|2-----------2---2--------------|-------------------------------|
                Say anything    but don't     goodnight           tonight
                                        say

    01:24
  G|------- ------- ------- -------|------- ------- ------- -------|
  D|-------------------------------|-------------------------------|
  A|----------------2---2---2---3--|4-----4---------4--------------|
  E|0-----0---0-4------------------|------------4-----------4---3--|
          Don't         it                Don't         it
                say                             say

  G|------- ------- ------- -------|------4 ------- ------- 4/5----|
  D|------4---------------4--------|--------------------4----------|
  A|----------------------------4-3|2-----------2---2--------------|
  E|2-----------2---2--------------|-------------------------------|
        You   say anything            don't    goodnight          tonight 
          can                       but      say
    01:31
  G|------- ------- ------- -------|------- ------- ------- -------|
  D|-------------------------------|-------------------------------|
  A|-------------------------------|0------------------------------|
  E|0---0--------------------------|-------------------------------|



  G|------- ------- ------- -------|------- ------- ------- -------|
  D|-------------------------------|7-----9-----9/11---------------|
  A|0------------------------------|0-----0-----0------------------|
  E|-------------------------------|-------------------------------|


  
  G|------- ------- ------- -------|------- ------- ------- -------|
  D|-------------------------------|-------------------------------|
  A|-------------------------------|0------------------------------|
  E|0------------------------------|-------------------------------|



  G|------- ------- ------- -------|------- ------- ------- 1211---|
  D|-------------------------------|7-----9-----9/11----------\----|
  A|0------------------------------|0-----0-----0------------------|
  E|-------------------------------|-------------------------------|


    01:47
  G|------- ------- ------- -------|------- ------- ------- -------|
  D|-------------------------------|-------------------------------|
  A|----------------2-------2---3--|4-----4---2-----4--------------|
  E|0-----0---0-4------------------|------------4-----------4---3--|



  G|------- ------- ------- -------|------4 ------- 4---4-- 4/5----|
  D|------4---------------4--------|-------------------------------|
  A|----------------------------4-3|2-----------2------------------|
  E|2-----------2---2--------------|-------------------------------|



    01:56 ....


    02:10
  G|------- ------- ------- -------|------- ------- ------- -------|
  D|-------------------------------|-------------------------------|
  A|----------------------------0--|2-----2---2-2-------2---2-/----|
  E|0-----0-----3-------0---3------|-------------------------------|



  G|------- ------- ------- -------|------- ------- ------- -------|
  D|-------------------------------|-------------------------------|
  A|7--------------/---------------|19--------------19--\----------|
  E|-------------------------------|-------------------------------|



  G|------- ------- ------- -------|------- ------- ------- -------|
  D|-------------------------------|-------------------------------|
  A|------------------------0---2--|-------------------------------|
  E|0-----0-------------3-4--------|-------------------------------|



  G|------- ------- ------- -------|------- ------- ------- -------|
  D|-------------------------------|-------------------------------|
  A|-------------------------------|-------------------------------|
  E|0-----0-------------2-3-4---6-\|--------2-/-----11-------------|



  G|------- ------- ------- -------|------- ------- ------- -------|
  D|-------------------------------|-------------------------------|
  A|------------------------------2|-------------------------------|
  E|0-----0-------------0-2-3---4--|-------------------------------|



    02:30  INTRO & GUITAR SOLO




    03:16
    Don't Get Too Tired For Love 
    Don't Let It End 
    Don't Say Goodnight To Love 
    It's A Feeling That May Never End 

    Don't Say It!  
    Don't Say It! 
    Say Anything But Don't Say Goodnight Tonight 

    Don't Say It!  
    Don't Say It! 
    Say Anything But Don't Say Goodnight Tonight 

    Don't Say It!  
    Don't Say It! 
    You Can Say Anything But Don't Say Goodnight Tonight 





        B  Bend
        R  Release
        /  Slide up
        \  Slide down
        H  Hammer-on
        P  Pull-off
        ~  Vibrato
        +  Harmonic
        x  Mute note
        .  Play note like a dot in standard notation
        ^  Ties two notes together
        (. Pause




            
            
Suggest correction
Creating personal tab
Creating personal tab
You can edit any tab online and save it as your Personal.

You can edit, replace or remove any tab part or add personal notes – all changes will be seen only by you.

Personal tabs can be accessed anytime from any device, even offline.
Learn more »
comments
print report bad tab
2 comments total.
0 reply
MistyMorning 1,450 Jul 07, 2013 04:58 AM

Loving this Tab.

0 reply
jwilder 62 Jan 16, 2015 11:41 AM

Nice dude!

guest
You may want to rate the tab now too:
select rating
Wanna post a correction for this tab? Suggest correction