Oops, an error
Loading. Please wait.

Here Today tab

version 2
version 2

Whole song

Interactive

4,065 views 9 this week
no commentswrite comment
1 2 3 4 5
x 3
add to favorites
×
Save as Personal and add changes to this tab that will be seen only by you. Learn more ›
×
You can save this tab as Personal to edit and correct it or add notes. All changes will be seen only by you. Learn more »
launch autoscroll
font size
0
reset
how to read this tab
guitar tuner
edit
Autoscroll
slow
fast
+/-
esc
set tempo
stop
Author
Difficulty
Tab By Nick Bishop Dec.12,2009* 4:00


_Play the tab below to these lyrics_

And if I said I really knew you well

What would your answer be

  If you were here today


Ooh - ooh - ooh

Here today


 Well knowing you, you'd probably laugh

And say that we were worlds apart

 If you were here today


Ooh - ooh - ooh

Here today


e|----------------------------------------------------------------------------------|
B|---------0--------------0-------------0---------------0---------------------------|
G|-------0-------------0------------0----------------0------------------------------|
D|-----2------------2-----------2----------------2----------------------------------|
A|-2/4----------4-----------3-----------------3-------------------------------------|
E|----------------------------------------------------------------------------------|

-|
B|---------0--------------0-------------0---------------0---------------------------|
G|-------0-------------0------------0----------------0------------------------------|
D|-----2------------2-----------2----------------2----------------------------------|
A|-2/4----------4-----------3-----------------3-------------------------------------|


e|----------------------------------------------------------------------|
B|-----------0------------------------------------------4---------------|
G|--------0---------------------------------------------5---------------|
D|-----0-------------------2----2---2--2--2-------------5---CM 3 times--|
A|--2----------------------2----2---2--2--2-------------3---------------|
E|----------------3---2---------------------------------3---------------|

e|----3------------------------------------------|
B|----6------------------------------------------|
G|----5----csus 3 times then back to CM 3 times--|
D|----5------------------------------------------|
A|----3------------------------------------------|
E|----3------------------------------------------|

e|-------3--------------------|
B|-------0--------------------|
G|-------0----play G 4 times--|
D|-------0--------------------|
A|-------2--------------------|
E|-------3--------------------|

Here are the chords for the next part
C
 But as for me
F                         C
 I still remember how it was before
F                            C   Am  Em
 And I am holding back the tears no more
 C    Am  Em
Ooh - no, no
   Fmaj
I love you
D7
Ooh

Part C
G
What about the time we met
          Ddim
Well I suppose you could say
               Em
That we were playing hard to get
     Em
We didn't understand a thing
               Am    D7
But we could always sing
Em
What about the night we cried
               Ddim                      Em
Because there wasn't any reason left to keep it all inside
Em
Never understood a word
               Am     D7           Em
But you were always there with a smile

-----------------------------------------------

Play the same thing as the start to the lyrics below!

And if I said,   I really loved you

And was glad you came along

 And you were here today


Ooh - ooh - ooh for you were in my song

Ooh - ooh - ooh

Here today


e|----------------------------------------------------------------------------------|
B|---------0--------------0-------------0---------------0---------------------------|
G|-------0-------------0------------0----------------0------------------------------|
D|-----2------------2-----------2----------------2----------------------------------|
A|-2/4----------4-----------3-----------------3-------------------------------------|
E|----------------------------------------------------------------------------------|

-|
B|---------0--------------0-------------0---------------0---------------------------|
G|-------0-------------0------------0----------------0------------------------------|
D|-----2------------2-----------2----------------2----------------------------------|
A|-2/4----------4-----------3-----------------3-------------------------------------|


e|----------------------------------------------------------------------|
B|-----------0------------------------------------------4---------------|
G|--------0---------------------------------------------5---------------|
D|-----0-------------------2----2---2--2--2-------------5---CM 3 times--|
A|--2----------------------2----2---2--2--2-------------3---------------|
E|----------------3---2---------------------------------3---------------|

e|----3------------------------------------------|
B|----6------------------------------------------|
G|----5----csus 3 times then back to CM 3 times--|
D|----5------------------------------------------|
A|----3------------------------------------------|
E|----3------------------------------------------|

e|-------3--------------------|
B|-------0--------------------|
G|-------0----play G 4 times--|
D|-------0--------------------|
A|-------2--------------------|
E|-------3--------------------|


Then end on G Gsus4 G

| /  slide up
| \  slide down
| h  hammer-on
| p  pull-off
| ~  vibrato
| +  harmonic
| x  Mute note

            
            
Suggest correction
Creating personal tab
Creating personal tab
You can edit any tab online and save it as your Personal.

You can edit, replace or remove any tab part or add personal notes – all changes will be seen only by you.

Personal tabs can be accessed anytime from any device, even offline.
Learn more »
Give kudos to tab author, rate the tab!
1 2 3 4 5
comments
print report bad tab
guest
You may want to rate the tab now too:
select rating
Wanna post a correction for this tab? Suggest correction