Oops, an error
Loading. Please wait.

Lonely Road bass

148 views 1 this week
no commentswrite comment
1 2 3 4 5
3 more votes to show rating
add to favorites
×
Save as Personal and add changes to this tab that will be seen only by you. Learn more ›
×
You can save this tab as Personal to edit and correct it or add notes. All changes will be seen only by you. Learn more »
launch autoscroll
font size
0
reset
guitar tuner
edit
Autoscroll
slow
fast
+/-
esc
set tempo
stop
Author
Difficulty
Intro :
G|---------------------------------|---------------------------------|
D|--------2---------------2--------|--------2---------------2--------|
A|3---------------3----------------|2---------------2----------------|
E|---------------------------------|---------------------------------|

G|---------------------------------|---------------------------------|
D|--------2---------------2--------|--------2---------------2--------|
A|3---------------3----------------|2---------------2----------------|
E|---------------------------------|---------------------------------|

Verse 1 :
G|---------------------------------|---------------------------------|
D|--------2-------5-------2--------|--------2---------------2--------|
A|3--------------------------------|2---------------2----------------|
E|---------------------------------|---------------------------------|

G|---------------------------------|---------------------------------|
D|--------2-------5-------2--------|--------2---------------2--------|
A|3--------------------------------|2---------------2----------------|
E|---------------------------------|---------------------------------|

G|---------------------------------|---------------------------------|
D|--------2---------------2--------|---------------------------------|
A|3---------------3----------------|---------------------------------|
E|---------------------------------|3-------2-------0----------------|

G|----------------7----------------|----------------5----------------|
D|------------7--------------------|------------5--------------------|
A|5--------------------------------|3--------------------------------|
E|---------------------------------|---------------------------------|

G|----------------4----------------|---------------------------------|
D|------------4--------------------|---------------------------------|
A|2--------------------------------|0-------2-------3-------2--------|
E|---------------------------------|---------------------------------|

G|---------------------------------|---------------------------------|
D|--------2-------5-------2--------|2---------------2----------------|
A|3--------------------------------|--------2---------------2--------|
E|---------------------------------|---------------------------------|

G|---------------------------------|---------------------------------|
D|--------2-------5-------2--------|2-------------/-4-------2--------|
A|3--------------------------------|--------2------------------------|
E|---------------------------------|---------------------------------|

G|---------------------------------|---------------------------------|
D|--------2-------5-------2--------|---------------------------------|
A|3--------------------------------|---------------------------------|
E|---------------------------------|3-------2-------0----------------|

G|----------------7----------------|----------------5----------------|
D|------------7--------------------|------------5--------------------|
A|5--------------------------------|3--------------------------------|
E|---------------------------------|---------------------------------|

G|----------------4----------------|-------------------------------/-|
D|------------4--------------------|---------------------------------|
A|2--------------------------------|0-------2-------3-------5--------|
E|---------------------------------|---------------------------------|

G|4-----/-4-----/-4-----/-4--------|
D|---------------------------------|
A|---------------------------------|
E|---------------------------------|

Chorus :
G|---------------------------------|---------------------------------|
D|---------------------------------|----------------7----------------|
A|----------------7----------------|--------7---------------7--------|
E|0-------7---------------7--------|5--------------------------------|

G|---------------------------------|---------------------------------|
D|----------------2----------------|----------------7----------------|
A|--------2---------------2--------|--------7---------------7--------|
E|0--------------------------------|5--------------------------------|

G|---------------------------------|---------------------------------|
D|----------------2----------------|---------------------------------|
A|--------2---------------2--------|--------7---------------7--------|
E|0--------------------------------|5---------------5----------------|

G|---------------------------------|---------------------------------|
D|------------------------------/--|9-------9-9-----9-9-----9-9------|
A|--------7---------------7--------|---------------------------------|
E|5---------------5----------------|---------------------------------|

G|---------------------------------|---------------------------------|
D|---------------------------------|------------------------2--------|
A|---------------------------------|0-------2-------3----------------|
E|0-------2-------3-------2--------|---------------------------------|

G|---------------------------------|---------------------------------|
D|---------------------------------|------------------------2--------|
A|---------------------------------|0-------2-------3----------------|
E|0-------2-------3-------2--------|---------------------------------|

G|---------------------------------|---------------------------------|
D|---------------------------------|---------------------------------|
A|---------------------------------|0-------2-------3-------5--------|
E|0-------2-------3-------0--------|---------------------------------|

G|---------------------------------|---------------------------------|
D|---------------------------------|---------------------------------|
A|7-------2-------3-------2--------|2-------2-2-----2-2-----2-2------|
E|---------------------------------|---------------------------------|

Solo :
G|---------------------------------|---------------------------------|
D|--------2-------5-------2--------|---------------------------------|
A|3--------------------------------|--------2---------------2--------|
E|---------------------------------|0---------------0----------------|

G|---------------------------------|---------------------------------|
D|--------2-------5-------2--------|-------------/--4----/--2--------|
A|3--------------------------------|-----/--2------------------------|
E|---------------------------------|0--------------------------------|

G|---------------------------------|---------------------------------|
D|--------2-------5-------2--------|5-------4-------2----------------|
A|3--------------------------------|---------------------------------|
E|---------------------------------|---------------------------------|

G|----------------7----------------|----------------5----------------|
D|------------7--------------------|------------5--------------------|
A|5--------------------------------|3--------------------------------|
E|---------------------------------|---------------------------------|

G|----------------4----------------|-------------------------------/-|
D|------------4--------------------|----------------7----------------|
A|2--------------------------------|0---2-/-7---------------7--------|
E|---------------------------------|---------------------------------|

G|4-----/-4-----/-4-----/-4--------|
D|---------------------------------|
A|---------------------------------|
E|---------------------------------|

Chorus :
G|---------------------------------|---------------------------------|
D|---------------------------------|---------------------------------|
A|----------------7----------------|--------7---------------7--------|
E|0-------7---------------7--------|5---------------5----------------|

G|---------------------------------|---------------------------------|
D|----------------2----------------|---------------------------------|
A|--------2---------------2--------|--------7---------------7--------|
E|0--------------------------------|5---------------5----------------|

G|---------------------------------|---------------------------------|
D|----------------2----------------|---------------------------------|
A|--------2---------------2--------|--------7---------------7--------|
E|0--------------------------------|5---------------5----------------|

G|---------------------------------|---------------------------------|
D|------------------------------/--|9----/--9----/--9----/--9--------|
A|--------7---------------7--------|---------------------------------|
E|5---------------5----------------|---------------------------------|

G|---------------------------------|---------------------------------|
D|---------------------------------|------------------------2--------|
A|---------------------------------|0-------2-------3----------------|
E|0-------2-------3-------2--------|---------------------------------|

G|---------------------------------|---------------------------------|
D|---------------------------------|------------------------2--------|
A|---------------------------------|0-------2-------3----------------|
E|0-------2-------3-------2--------|---------------------------------|

G|---------------------------------|---------------------------------|
D|---------------------------------|------------------------------/--|
A|---------------------------------|0-------2-------3-------5--------|
E|0-------2-------3-------0--------|---------------------------------|

G|---------------------------------|---------------------------------|
D|7----/--7----/--7----/--7--------|---------------------------------|
A|---------------------------------|2-------2-2-----2-2-----2-2------|
E|---------------------------------|---------------------------------|

G|---------------------------------|---------------------------------|
D|---------------------------------|------------------------2--------|
A|---------------------------------|0-------2-------3----------------|
E|0-------2-------3-------2--------|---------------------------------|

G|---------------------------------|---------------------------------|
D|---------------------------------|------------------------2--------|
A|---------------------------------|0-------2-------3----------------|
E|0-------2-------3-------2--------|---------------------------------|

G|---------------------------------|---------------------------------|
D|---------------------------------|------------------------------/--|
A|---------------------------------|0-------2-------3-------5--------|
E|0-------2-------3-------0--------|---------------------------------|

G|---------------------------------|---------------------------------|
D|7----/--7----/--7----/--7--------|---------------------------------|
A|---------------------------------|2-------2-2-----2-2-----2-2------|
E|---------------------------------|---------------------------------|

G|---------------------------------|---------------------------------|
D|---------------------------------|------------------------2--------|
A|---------------------------------|0-------2-------3----------------|
E|0-------2-------3-------2--------|---------------------------------|

G|---------------------------------|---------------------------------|
D|---------------------------------|------------------------2--------|
A|---------------------------------|0-------2-------3----------------|
E|0-------2-------3-------2--------|---------------------------------|

G|---------------------------------|---------------------------------|
D|---------------------------------|------------------------2-----/--|
A|---------------------------------|0-------2-------3----------------|
E|0-------2-------3-------0--------|---------------------------------|

G|---------------------------------|---------------------------------|
D|7----/--7----/--7----/--7--------|---------------------------------|
A|---------------------------------|2-------0------------------------|
E|---------------------------------|----------------3-------2--------|

G|---------------------------------|---------------------------------|
D|---------------------------------|------------------------2--------|
A|---------------------------------|0-------2-------3----------------|
E|0-------2-------3-------2--------|---------------------------------|

G|---------------------------------|---------------------------------|
D|---------------------------------|------------------------2--------|
A|---------------------------------|0-------2-------3----------------|
E|0-------2-------3-------0--------|---------------------------------|

G|---------------------------------|---------------------------------|
D|---------------------------------|------------------------2--------|
A|---------------------------------|0-------2-------3----------------|
E|0-------2-------3-------0--------|---------------------------------|

G|---------------------------------|---------------------------------|
D|---------------------------------|------------------------2--------|
A|---------------------------------|0-------2-------3----------------|
E|0-------2-------3-------0--------|---------------------------------|

G|---------------------------------|---------------------------------|
D|2--------------------------------|---------------------------------|
A|---------------------------------|---------------------------------|
E|---------------------------------|---------------------------------|

            
            
Suggest correction
Creating personal tab
Creating personal tab
You can edit any tab online and save it as your Personal.

You can edit, replace or remove any tab part or add personal notes – all changes will be seen only by you.

Personal tabs can be accessed anytime from any device, even offline.
Learn more »
Give kudos to tab author, rate the tab!
1 2 3 4 5
comments
print report bad tab
guest
You may want to rate the tab now too:
select rating
Wanna post a correction for this tab? Suggest correction