Oops, an error
Loading. Please wait.

Lucille bass

67 views 1 this week
no commentswrite comment
1 2 3 4 5
3 more votes to show rating
add to favorites
×
Save as Personal and add changes to this tab that will be seen only by you. Learn more ›
×
You can save this tab as Personal to edit and correct it or add notes. All changes will be seen only by you. Learn more »
launch autoscroll
font size
0
reset
guitar tuner
edit
Autoscroll
slow
fast
+/-
esc
set tempo
stop
Author
Difficulty
[Intro]
G|----------------3---3---5---3----|----------------3---3---5---3----|
D|--------2---5--------------------|--------2---5--------------------|
A|3---3----------------------------|3---3----------------------------|
E|---------------------------------|---------------------------------|

G|----------------3---3---5---3----|----------------3---3---5---3----|
D|--------2---5--------------------|--------2---5--------------------|
A|3---3----------------------------|3---3----------------------------|
E|---------------------------------|---------------------------------|

G|---------------------------------|---------------------------------|
D|----------------1---1---3---1----|----------------1---1---3---1----|
A|--------0---3--------------------|--------0---3--------------------|
E|1---1----------------------------|1---1----------------------------|

G|----------------3---3---5---3----|----------------3---3---5---3----|
D|--------2---5--------------------|--------2---5--------------------|
A|3---3----------------------------|3---3----------------------------|
E|---------------------------------|---------------------------------|

G|---------------------------------|---------------------------------|
D|----------------3---3---5---3----|----------------1---1---3---1----|
A|--------2---5--------------------|--------0---3--------------------|
E|3---3----------------------------|1---1----------------------------|

G|----------------3---3---5---3----|---------------------------------|
D|--------2---5--------------------|5---5---5---5---5---5---5---5----|
A|3---3----------------------------|---------------------------------|
E|---------------------------------|---------------------------------|

[Chorus]
G|----------------3---3---5---3----|----------------3---3---5---3----|
D|--------2---5--------------------|--------2---5--------------------|
A|3---3----------------------------|3---3----------------------------|
E|---------------------------------|---------------------------------|

G|----------------3---3---5---3----|----------------3---3---5---3----|
D|--------2---5--------------------|--------2---5--------------------|
A|3---3----------------------------|3---3----------------------------|
E|---------------------------------|---------------------------------|

G|---------------------------------|---------------------------------|
D|----------------1---1---3---1----|----------------1---1---3---1----|
A|--------0---3--------------------|--------0---3--------------------|
E|1---1----------------------------|1---1----------------------------|

G|----------------3---3---5---3----|----------------3---3---5---3----|
D|--------2---5--------------------|--------2---5--------------------|
A|3---3----------------------------|3---3----------------------------|
E|---------------------------------|---------------------------------|

G|---------------------------------|---------------------------------|
D|----------------3---3---5---3----|----------------1---1---3---1----|
A|--------2---5--------------------|--------0---3--------------------|
E|3---3----------------------------|1---1----------------------------|

G|----------------3---3---5---3----|---------------------------------|
D|--------2---5--------------------|5---5---5---5---5---5---5---5----|
A|3---3----------------------------|---------------------------------|
E|---------------------------------|---------------------------------|

[Chorus]
G|----------------3---3---5---3----|----------------3---3---5---3----|
D|--------2---5--------------------|--------2---5--------------------|
A|3---3----------------------------|3---3----------------------------|
E|---------------------------------|---------------------------------|

G|----------------3---3---5---3----|----------------3---3---5---3----|
D|--------2---5--------------------|--------2---5--------------------|
A|3---3----------------------------|3---3----------------------------|
E|---------------------------------|---------------------------------|

G|---------------------------------|---------------------------------|
D|----------------1---1---3---1----|----------------1---1---3---1----|
A|--------0---3--------------------|--------0---3--------------------|
E|1---1----------------------------|1---1----------------------------|

G|----------------3---3---5---3----|----------------3---3---5---3----|
D|--------2---5--------------------|--------2---5--------------------|
A|3---3----------------------------|3---3----------------------------|
E|---------------------------------|---------------------------------|

G|---------------------------------|---------------------------------|
D|----------------3---3---5---3----|----------------1---1---3---1----|
A|--------2---5--------------------|--------0---3--------------------|
E|3---3----------------------------|1---1----------------------------|

G|----------------3---3---5---3----|---------------------------------|
D|--------2---5--------------------|5---5---5---5---5---5---5---5----|
A|3---3----------------------------|---------------------------------|
E|---------------------------------|---------------------------------|

[Bridge]
G|---------------------------------|---------------------------------|
D|---------------------------------|---------------------------------|
A|3--------------------------------|3--------------------------------|
E|---------------------------------|---------------------------------|

G|---------------------------------|---------------------------------|
D|---------------------------------|---------------------------------|
A|3--------------------------------|3---3---3---3---3---1---0--------|
E|---------------------------------|----------------------------3----|

[Chorus]
G|---------------------------------|---------------------------------|
D|----------------1---1---3---1----|----------------1---1---3---1----|
A|--------0---3--------------------|--------0---3--------------------|
E|1---1----------------------------|1---1----------------------------|

G|----------------3---3---5---3----|----------------3---3---5---3----|
D|--------2---5--------------------|--------2---5--------------------|
A|3---3----------------------------|3---3----------------------------|
E|---------------------------------|---------------------------------|

G|---------------------------------|---------------------------------|
D|----------------3---3---5---3----|----------------1---1---3---1----|
A|--------2---5--------------------|--------0---3--------------------|
E|3---3----------------------------|1---1----------------------------|

G|----------------3---3---5---3----|---------------------------------|
D|--------2---5--------------------|5---5---5---5---5---5---5---5----|
A|3---3----------------------------|---------------------------------|
E|---------------------------------|---------------------------------|

[Solo]
G|----------------3---3---5---3----|----------------3---3---5---3----|
D|--------2---5--------------------|--------2---5--------------------|
A|3---3----------------------------|3---3----------------------------|
E|---------------------------------|---------------------------------|

G|----------------3---3---5---3----|----------------3---3---5---3----|
D|--------2---5--------------------|--------2---5--------------------|
A|3---3----------------------------|3---3----------------------------|
E|---------------------------------|---------------------------------|

G|---------------------------------|---------------------------------|
D|----------------1---1---3---1----|----------------1---1---3---1----|
A|--------0---3--------------------|--------0---3--------------------|
E|1---1----------------------------|1---1----------------------------|

G|----------------3---3---5---3----|----------------3---3---5---3----|
D|--------2---5--------------------|--------2---5--------------------|
A|3---3----------------------------|3---3----------------------------|
E|---------------------------------|---------------------------------|

G|---------------------------------|------------5---8---8---10--8----|
D|----------------3---3---5---3----|3---3---7------------------------|
A|--------2---5--------------------|---------------------------------|
E|3---3----------------------------|---------------------------------|

G|----------------3---3---5---3----|---------------------------------|
D|--------2---5--------------------|5---5---5---5---5---5---5---5----|
A|3---3----------------------------|---------------------------------|
E|---------------------------------|---------------------------------|

[Bridge]
G|---------------------------------|---------------------------------|
D|---------------------------------|---------------------------------|
A|3--------------------------------|3--------------------------------|
E|---------------------------------|---------------------------------|

G|---------------------------------|---------------------------------|
D|---------------------------------|---------------------------------|
A|3--------------------------------|3---3---3---3---3---1------------|
E|---------------------------------|---------------------------------|

[Chorus]
G|---------------------------------|---------------------------------|
D|----------------1---1---3---1----|----------------1---1---3---1----|
A|--------0---3--------------------|--------0---3--------------------|
E|1---1----------------------------|1---1----------------------------|

G|----------------3---3---5---3----|----------------3---3---5---3----|
D|--------2---5--------------------|--------2---5--------------------|
A|3---3----------------------------|3---3----------------------------|
E|---------------------------------|---------------------------------|

G|---------------------------------|---------------------------------|
D|----------------3---3---5---3----|----------------1---1---3---1----|
A|--------2---5--------------------|--------0---3--------------------|
E|3---3----------------------------|1---1----------------------------|

G|----------------3---3---5---3----|---------------------------------|
D|--------2---5--------------------|5---5---5---5---5---5---5---5----|
A|3---3----------------------------|---------------------------------|
E|---------------------------------|---------------------------------|

[Solo]
G|----------------3---3---5---3----|----------------3---3---5---3----|
D|--------2---5--------------------|--------2---5--------------------|
A|3---3----------------------------|3---3----------------------------|
E|---------------------------------|---------------------------------|

G|----------------3---3---5---3----|----------------3---3---5---3----|
D|--------2---5--------------------|--------2---5--------------------|
A|3---3----------------------------|3---3----------------------------|
E|---------------------------------|---------------------------------|

G|--------2---5---8---8---10--8----|--------2---5---8---8---10--8----|
D|3---3----------------------------|3---3----------------------------|
A|---------------------------------|---------------------------------|
E|---------------------------------|---------------------------------|

G|----------------3---3---5---3----|----------------3---3---5---3----|
D|--------2---5--------------------|--------2---5--------------------|
A|3---3----------------------------|3---3----------------------------|
E|---------------------------------|---------------------------------|

G|---------------------------------|---------------------------------|
D|----------------3---3---5---3----|----------------1---1---3---1----|
A|--------2---5--------------------|--------0---3--------------------|
E|3---3----------------------------|1---1----------------------------|

G|----------------3---3---5---3----|---------------------------------|
D|--------2---5--------------------|5---5---5---5---5---5---5---5----|
A|3---3----------------------------|---------------------------------|
E|---------------------------------|---------------------------------|

[Bridge]
G|---------------------------------|---------------------------------|
D|---------------------------------|---------------------------------|
A|3--------------------------------|3--------------------------------|
E|---------------------------------|---------------------------------|

G|---------------------------------|---------------------------------|
D|---------------------------------|---------------------------------|
A|3--------------------------------|3---3-/-7------------------------|
E|---------------------------------|---------------------------------|

[Chorus]
G|---------------------------------|---------------------------------|
D|----------------1---1---3---1----|----------------1---1---3---1----|
A|--------0---3--------------------|--------0---3--------------------|
E|1---1----------------------------|1---1----------------------------|

G|----------------3---3---5---3----|----------------3---3---5---3----|
D|--------2---5--------------------|--------2---5--------------------|
A|3---3----------------------------|3---3----------------------------|
E|---------------------------------|---------------------------------|

G|---------------------------------|---------------------------------|
D|----------------3---3---5---3----|----------------1---1---3---1----|
A|--------2---5--------------------|--------0---3--------------------|
E|3---3----------------------------|1---1----------------------------|

G|----------------3---3---5---3----|---------------------------------|
D|--------2---5--------------------|5---5---5---5---5---5---5---5----|
A|3---3----------------------------|---------------------------------|
E|---------------------------------|---------------------------------|

[Chorus]
G|----------------3---3---5---3----|----------------3---3---5---3----|
D|--------2---5--------------------|--------2---5--------------------|
A|3---3----------------------------|3---3----------------------------|
E|---------------------------------|---------------------------------|

G|----------------3---3---5---3----|----------------3---3---5---3----|
D|--------2---5--------------------|--------2---5--------------------|
A|3---3----------------------------|3---3----------------------------|
E|---------------------------------|---------------------------------|

G|---------------------------------|---------------------------------|
D|----------------1---1---3---1----|----------------1---1---3---1----|
A|--------0---3--------------------|--------0---3--------------------|
E|1---1----------------------------|1---1----------------------------|

G|----------------3---3---5---3----|----------------3---3---5---3----|
D|--------2---5--------------------|--------2---5--------------------|
A|3---3----------------------------|3---3----------------------------|
E|---------------------------------|---------------------------------|

G|---------------------------------|---------------------------------|
D|----------------3---3---5---3----|----------------1---1---3---1----|
A|--------2---5--------------------|--------0---3--------------------|
E|3---3----------------------------|1---1----------------------------|

G|----------------3---3---5---3----|---------------------------------|
D|--------2---5--------------------|---------------------------------|
A|3---3----------------------------|3-------5---3--------------------|
E|---------------------------------|---------------------------------|

            
            
Suggest correction
Creating personal tab
Creating personal tab
You can edit any tab online and save it as your Personal.

You can edit, replace or remove any tab part or add personal notes – all changes will be seen only by you.

Personal tabs can be accessed anytime from any device, even offline.
Learn more »
Give kudos to tab author, rate the tab!
1 2 3 4 5
comments
print report bad tab
guest
You may want to rate the tab now too:
select rating
Wanna post a correction for this tab? Suggest correction