Oops, an error
Loading. Please wait.

Man We Was Lonely bass

82 views 1 this week
no commentswrite comment
1 2 3 4 5
3 more votes to show rating
add to favorites
×
Save as Personal and add changes to this tab that will be seen only by you. Learn more ›
×
You can save this tab as Personal to edit and correct it or add notes. All changes will be seen only by you. Learn more »
launch autoscroll
font size
0
reset
guitar tuner
edit
Autoscroll
slow
fast
+/-
esc
set tempo
stop
Intro :
G|---------------------------------|---------------------------------|
D|7--------------------------------|7--------------------------------|
A|0--------------------------------|0--------------------------------|
E|---------------------------------|---------------------------------|

G|---------------------------------|---------------------------------|
D|7--------------------------------|7--------------------------------|
A|0--------------------------------|0--------------------------------|
E|---------------------------------|---------------------------------|

G|---------------------------------|---------------------------------|
D|7--------------------------------|7--------------------------------|
A|0--------------------------------|0--------------------------------|
E|---------------------------------|---------------------------------|

G|---------------------------------|---------------------------------|
D|7--------------------------------|7---------------7----------------|
A|0--------------------------------|--------7---------------7--------|
E|---------------------------------|---------------------------------|

G|---------------------------------|
D|7---------------7-------4---6----|
A|--------7-----------7------------|
E|---------------------------------|

Chorus :
G|---------------------------------|---------------------------------|
D|7---------------7----------------|7---------------7----------------|
A|--------7---------------7--------|--------7---------------7--------|
E|---------------------------------|---------------------------------|

G|---------------------------------|----------------9----------------|
D|---------------------------------|------------------------4---6----|
A|7---------------7----------------|7-------------------7------------|
E|--------7---------------7--------|-------7-------------------------|

G|---------------------------------|---------------------------------|
D|7---------------7----------------|7---------------7----------------|
A|--------7---------------7--------|--------7---------------4---5----|
E|---------------------------------|---------------------------------|

G|---------------------------------|---------------------------------|
D|------------------------4---6----|7---------------7----------------|
A|7---------------7----------------|--------7---------------7--------|
E|--------7------------------------|---------------------------------|

Verse 1 :
G|---------------------------------|----------------9----------------|
D|7---------------9----------------|--------9---------------9---8----|
A|--------7---------------9---8----|7--------------------------------|
E|---------------------------------|---------------------------------|

G|---------------------------------|---------------------------------|
D|7---------------9----------------|--------9---------------9--------|
A|--------7---------------9---8----|7---------------7----------------|
E|---------------------------------|---------------------------------|

G|---------------------------------|---------------------------------|
D|7-----------------------7--------|--------9---------------9--------|
A|--------7---6---5----------------|7---------------7-----------7----|
E|---------------------------------|---------------------------------|

G|---------------------------------|---------------------------------|
D|7---------------7----------------|9---------------9----------------|
A|--------7---------------7--------|--------9---------------9--------|
E|---------------------------------|---------------------------------|

G|----------------9----------------|9---------------9\---------------|
D|--------9---------------9--------|--------9---------------4---6----|
A|7--------------------------------|--------------------7------------|
E|---------------------------------|---------------------------------|

Chorus :
G|---------------------------------|---------------------------------|
D|7---------------7-----------6----|7---------------7----------------|
A|--------7---------------7--------|--------7-----------4---5---6----|
E|---------------------------------|---------------------------------|

G|---------------------------------|----------------9----------------|
D|--------9------------------------|--------9---------------4---6----|
A|7---------------7-----------6----|7-------------------7------------|
E|------------------------7--------|---------------------------------|

G|---------------------------------|---------------------------------|
D|7---------------7-----------6----|7---------------7----------------|
A|--------7---------------7--------|--------7---------------4---5----|
E|---------------------------------|---------------------------------|

G|---------------------------------|---------------------------------|
D|--------9---------------4---6----|7---------------7-------4---6----|
A|7---------------7----------------|--------7-----------7------------|
E|---------------------------------|---------------------------------|

Solo :
G|---------------------------------|----------------9----------------|
D|7---------------9----------------|--------9---------------4---6----|
A|--------7---------------9---8----|7--------------------------------|
E|---------------------------------|---------------------------------|

G|---------------------------------|---------------------------------|
D|7---------------9----------------|--------9---------------9--------|
A|--------7---------------9---8----|7---------------7----------------|
E|---------------------------------|---------------------------------|

Verse 2 :
G|---------------------------------|9---------------9----------------|
D|7-----------------------7--------|--------9---------------9---8----|
A|--------7---6---5----------------|---------------------------------|
E|---------------------------------|---------------------------------|

G|---------------------------------|---------------------------------|
D|7---------------7----------------|9---------------9----------------|
A|--------7---------------7--------|--------9---------------9------/-|
E|---------------------------------|---------------------------------|

G|----------------9----------------|
D|--------9---------------4---6----|
A|7-------------------7------------|
E|---------------------------------|

Chorus :
G|---------------------------------|
D|7---------------7-------4---6----|
A|--------7-----------7------------|
E|---------------------------------|

G|---------------------------------|---------------------------------|
D|7---------------7----------------|---------------------------------|
A|--------7-----------4---5---6----|7---------------7-----7----------|
E|---------------------------------|--------7---------------7--------|

G|---------------------------------|---------------------------------|
D|------------------------4---6----|7---------------7-------4---6----|
A|7---------------7---7------------|--------7-----------7------------|
E|--------7------------------------|---------------------------------|

G|---------------------------------|---------------------------------|
D|7---------------7----------------|------------------------4---6----|
A|--------7-----------4---5---6----|7---------------7----------------|
E|---------------------------------|--------7------------------------|

G|---------------------------------|---------------------------------|
D|7---------------7-------7---4----|------------------------4---6----|
A|--------7------------------------|7---------------7----------------|
E|---------------------------------|--------7------------------------|

G|---------------------------------|---------------------------------|
D|7---------------7-------7---4----|---------------------------------|
A|--------7------------------------|7---------------7----------------|
E|---------------------------------|--------7---------------7-\------|

G|---------------------------------|---------------------------------|
D|7---------------7----------------|---------------------------------|
A|--------7---------------7---\----|0-----------------------2---4----|
E|---------------------------------|---------------------------------|

Outro :
G|---------------------------------|---------------------------------|
D|------------4-------7-------9----|10----------9-------7------------|
A|5--------------------------------|----------------------------8----|
E|---------------------------------|---------------------------------|

G|---------------------------------|---------------------------------|
D|---------------------------------|---------------------------------|
A|0--------------------------------|0--------------------------------|
E|---------------------------------|---------------------------------|

G|---------------------------------|---------------------------------|
D|------------4-------7-------9----|10----------9-------7------------|
A|5--------------------------------|----------------------------8----|
E|---------------------------------|---------------------------------|

G|---------------------------------|---------------------------------|
D|---------------------------------|---------------------------------|
A|0--------------------------------|---------------------------------|
E|---------------------------------|---------------------------------|

            
            
Suggest correction
Creating personal tab
Creating personal tab
You can edit any tab online and save it as your Personal.

You can edit, replace or remove any tab part or add personal notes – all changes will be seen only by you.

Personal tabs can be accessed anytime from any device, even offline.
Learn more »
Give kudos to tab author, rate the tab!
1 2 3 4 5
comments
print report bad tab
guest
You may want to rate the tab now too:
select rating
Wanna post a correction for this tab? Suggest correction