Oops, an error
Loading. Please wait.
We have an official Maybe Im Amazed tab made by UG professional guitarists. Check out the tab »
×

Maybe Im Amazed solo tab

4,719 views 21 this week
2 commentsread comments
1 2 3 4 5
3 more votes to show rating
add to favorites
×
Save as Personal and add changes to this tab that will be seen only by you. Learn more ›
×
You can save this tab as Personal to edit and correct it or add notes. All changes will be seen only by you. Learn more »
launch autoscroll
font size
0
reset
how to read this tab
guitar tuner
edit
Autoscroll
slow
fast
+/-
esc
set tempo
stop
Im pretty sure this is right. but i may be wrong
E|---------------------------------------------|
B|---------8------10b--8-----------------------|
G|--7--10-----10----------10--7--5--9--10--9--7|
D|---------------------------------------------|
A|---------------------------------------------|
E|---------------------------------------------|

E|----------------------------------------------|
B|---------8------10b--8------------------------|
G|--7--10-----10----------10--7--5--9--9h10p9--7|
D|----------------------------------------------|
A|----------------------------------------------|
E|----------------------------------------------|

Im not too sure about this part
E|------------------------|
B|--10--9--10--9--10--9--8|
G|------------------------|
D|------------------------|
A|------------------------|
E|------------------------|

E|------------------------------------------------------|
B|---------8------10b--8--------------------------------|
G|--7--10-----10----------10--7--5--9--10--9--7--7--5--3|
D|------------------------------------------------------|
A|------------------------------------------------------|
E|------------------------------------------------------|

E|---------------------------------|
B|---------------------------------|
G|--7--8--7--5--------5--------5--7|
D|--------------5--7-----5--7------|
A|---------------------------------|
E|---------------------------------|

E|-----------------------------|
B|-----------------------------|
G|--5--6--5--3--5b--5b--3--1--0|
D|-----------------------------|
A|-----------------------------|
E|-----------------------------|
and thats it

            
            
Suggest correction
Creating personal tab
Creating personal tab
You can edit any tab online and save it as your Personal.

You can edit, replace or remove any tab part or add personal notes – all changes will be seen only by you.

Personal tabs can be accessed anytime from any device, even offline.
Learn more »
Give kudos to tab author, rate the tab!
1 2 3 4 5
comments
print report bad tab
2 comments total.
0 reply
FenderFreak626 15 Aug 13, 2006 08:25 AM

i actually forgot a part in the first line at the end so here it is

E|---------------|
B|---------------|
G|--9--10--9--7--|
D|---------------|
A|---------------|
E|---------------|

0 reply
FenderFreak626 15 Aug 13, 2006 08:25 AM

ignore wat i just wrote i didnt see it on my tab

guest
You may want to rate the tab now too:
select rating
Wanna post a correction for this tab? Suggest correction