Oops, an error
Loading. Please wait.

Movie Magg tab

1,100 views 3 this week
no commentswrite comment
1 2 3 4 5
3 more votes to show rating
add to favorites
×
Save as Personal and add changes to this tab that will be seen only by you. Learn more ›
×
You can save this tab as Personal to edit and correct it or add notes. All changes will be seen only by you. Learn more »
launch autoscroll
font size
0
reset
how to read this tab
guitar tuner
edit
Autoscroll
slow
fast
+/-
esc
set tempo
stop
Author
  --------------------------------------------------------

  PAUL McCARTNEY - MOVIE MAGG (Perkins) From RUN DEVIL RUN
                   album. Released on October, 5th, 1999.
   
  --------------------------------------------------------

  Tabbed by:PJVillanueva





  I suppose that E & b (1st & 2nd) strings were removed 
  or muted somehow for this recording. Depending on the 
  earphones' frequency range (the cheaper ones work best 
  for this, leaving lower frequencies out), you can hear 
  a guitar part, almost doubling the bass. Both rhythm 
  guitars sound softly muted, as often heard in country 
  music.
 


                              

    Now, let me take you to the movies, Magg, 
    So I can hold your hand.
    Oh, it ain't that I don't like your house, 
    It's just that doggone man
    And that double barrel behind the door 
    That waits for me, I know.
    Oh, climb upon old Becky's back 
    And let's ride to the picture show.

    I only see her once a week 
    And it's when my work is through.
    I break new ground the whole week long 
    But my mind's set straight on you.
    And I polished up my old horse Beck, 
    And she looks good, I know.
    So climb upon old Becky's back 
    And let's ride to the picture show.

    Now won't you let me take you to the show 
    So I can hold your hand.
    Oh, it ain't that I don't like your house, 
    It's just that doggone man
    And that double barrel behind the door 
    That waits for me, I know.
    So climb upon old Becky's back 
    And let's ride to the picture show. 

                SOLO
         
    Well, I break new ground all week long 
    With my mind set straight on you.
    And every time I try to smile, 
    My heart it breaks in two.
    I slick myself for Saturday night 
    Cause there's one thing I know,
    I'm gonna take my Maggie dear 
    To the Western picture show.

    Now won't you let me take you to the show 
    So I can hold your hand.
    And it ain't that I don't like your house, 
    It's just that doggone man
    And that double barrel behind the door 
    That waits for me, I know.
    So climb upon old Becky's back 
    And let's ride to the picture show.
 



    E
  e|------- ------- ------- -------|------- ------- ------- -------|
  B|-------------------------------|-------------------------------|
  G|-------------------------------|-------------------------------|
  D|-------------------------------|-------------------------------|
  A|----------------0-H-2----------|----------------0-H-2----------|
  E|0------------------------------|0------------------------------|
    E
  e|------- ------- ------- -------|------- ------- ------- -------|
  B|-------------------------------|-------------------------------|
  G|--------1---1-------1---1---1--|--------1---1-------1---1---1--|
  D|--------2---2-------2---2---2--|--------2---2-------2---2---2--|
  A|--------2---2-------2---2---2--|--------2---2-------2---2---2--|
  E|-------------------------------|-------------------------------|




  e|------- ------- ------- -------|------- ------- ------- -------|
  B|-------------------------------|-------------------------------|
  G|-------------------------------|-------------------------------|
  D|-------------------------------|-------------------------------|
  A|----------------0-H-2----------|----------------0-H-2----------|
  E|0------------------------------|0------------------------------|

  e|------- ------- ------- -------|------- ------- ------- -------|
  B|-------------------------------|-------------------------------|
  G|--------1---1-----------1---1--|--------1---1-----------1------|
  D|--------2---2-----------2---2--|--------2---2-----------2------|
  A|--------2---2-----------2---2--|--------2---2-----------2------|
  E|-------------------------------|-------------------------------|
                                            Now     let     me

    00:04

  e|------- ------- ------- -------|------- ------- ------- -------|
  B|-------------------------------|-------------------------------|
  G|-------------------------------|-------------------------------|
  D|-------------------------------|-------------------------------|
  A|----------------0H2------------|----------------2--------------|
  E|0------------------------------|0------------------------------|

  e|------- ------- ------- -------|------- ------- ------- -------|
  B|-------------------------------|-------------------------------|
  G|--------1---------------1---1--|--------1---------------1---1--|
  D|--------2---------------2---2--|--------2---------------2---2--|
  A|--------2---------------2---2--|--------2---------------2---2--|
  E|-------------------------------|-------------------------------|
    take    you     to      the     movies,     Magg            so
  e|------- ------- ------- -------|------- ------- ------- -------|
  B|-------------------------------|-------------------------------|
  G|-------------------------------|-------------------------------|
  D|2-------2---2---2-----------2--|2---2-------2---2--------------|
  A|2-------2---2---2-----------2--|2---2-------2---2--------------|
  E|0-------0---0---0-----------0--|0---0-------0---0--------------|

                            

    A5
  e|------- ------- ------- -------|------- ------- ------- -------|
  B|-------------------------------|-------------------------------|
  G|-------------------------------|-------------------------------|
  D|-------------------------------|-------------------------------|
  A|0------------------------------|0------------------------------|
  E|----------------0--------------|----------------0--------------|

  e|------- ------- ------- -------|------- ------- ------- -------|
  B|-------------------------------|-------------------------------|
  G|--------2---------------2------|--------2---2---2-------2------|
  D|--------2---------------2------|--------2---2---2-------2------|
  A|--------0---------------0------|--------0---0---0-------0------|
  E|-------------------------------|-------------------------------|
    I       can     hold    your                            Oh, it 
                                hand.
  e|------- ------- ------- -------|------- ------- ------- -------|
  B|-------------------------------|-------------------------------|
  G|2-------2-------2--------------|2-------2---2---2-------2------|
  D|2-------2-------2--------------|2-------2---2---2-------2------|
  A|0-------0-------0--------------|0-------0---0---0-------0------|
  E|0-------0-------0--------------|0-------0---0---0-------0------|  



    B
  e|------- ------- ------- -------|------- ------- ------- -------|
  B|-------------------------------|-------------------------------|
  G|-------------------------------|-------------------------------|
  D|-------------------------------|-------------------------------|
  A|2------------------------------|2------------------------------|
  E|----------------2--------------|----------------2--------------|

  e|------- ------- ------- -------|------- ------- ------- -------|  
  B|-------------------------------|-------------------------------|
  G|4-------4---4---4-------4------|--------4---4-----------4------|
  D|4-------4---4---4-------4------|--------4---4-----------4------|
  A|2-------2---2---2-------2------|--------2---2-----------2------|
  E|-------------------------------|-------------------------------|
     ain't  that            don't   like    your            It's 
                I                               house,
  e|------- ------- ------- -------|------- ------- ------- -------|
  B|-------------------------------|-------------------------------|
  G|4-------4---4---4-------4------|4-------4---4---4-------4------|
  D|4-------4---4---4-------4------|4-------4---4---4-------4------|
  A|2-------2---2---2-------2------|2-------2---2---2-------2------|
  E|2-------2---2---2-------2------|2-------2---2---2-------2------|



                                    E
  e|------- ------- ------- -------|------- ------- ------- -------|
  B|-------------------------------|-------------------------------|
  G|-------------------------------|-------------------------------|
  D|-------------------------------|-------------------------------|
  A|2------------------------------|----------------2--------------|
  E|----------------2--------------|0------------------------------|
                                    
  e|------- ------- ------- -------|------- ------- ------- -------|
  B|-------------------------------|-------------------------------|
  G|--------4---------------4---4--|1-------1---1-----------1---1--|
  D|--------4---------------4---4--|2-------2---2-----------2---2--|
  A|--------2---------------2---2--|2-------2---2-----------2---2--|
  E|-------------------------------|-------------------------------|
    just    that    doggone     man                     And that
  e|------- ------- ------- -------|------- ------- ------- -------|
  B|-------------------------------|-------------------------------|
  G|4-------4-------4-------4------|-------------------------------|
  D|4-------4-------4-------4------|2-------2---2---2-------2---2--|
  A|2-------2-------2-------2------|2-------2---2---2-------2---2--|
  E|2-------2-------2-------2------|0-------0---0---0-------0---0--|



    

  e|------- ------- ------- -------|------- ------- ------- -------|
  B|-------------------------------|-------------------------------|
  G|-------------------------------|-------------------------------|
  D|-------------------------------|-------------------------------|
  A|----------------2--------------|----------------2--------------|
  E|0------------------------------|0------------------------------|

  e|------- ------- ------- -------|------- ------- ------- -------|  
  B|-------------------------------|-------------------------------|
  G|1-------1-------1-------1------|1-------1---1---1-------1------|
  D|2-------2-------2-------2------|2-------2---2---2-------2------|
  A|2-------2-------2-------2------|2-------2---2---2-------2------|
  E|-------------------------------|-------------------------------|
    double      barrel      behind          the door        that 
  e|------- ------- ------- -------|------- ------- ------- -------|
  B|-------------------------------|-------------------------------|
  G|-------------------------------|-------------------------------|
  D|2---2---2-------2-------2------|2-----------2---2--------------|
  A|2---2---2-------2-------2------|2-----------2---2--------------|
  E|0---0---0-------0-------0------|0-----------0---0--------------|



    A5
  e|------- ------- ------- -------|------- ------- ------- -------|
  B|-------------------------------|-------------------------------|
  G|-------------------------------|-------------------------------|
  D|-------------------------------|-------------------------------|
  A|0------------------------------|0-------0----------------------|
  E|----------------0--------------|----------------0--------------|
    A5
  e|------- ------- ------- -------|------- ------- ------- -------|
  B|-------------------------------|-------------------------------|
  G|2-------2---2---2-------2---2--|2-------2-------2-------2---2--|
  D|2-------2---2---2-------2---2--|2-------2-------2-------2---2--|
  A|0-------0---0---0-------0---0--|0-------0-------0-------0---0--|
  E|-------------------------------|-------------------------------|
    waits   for me,     I       know.                       Oh, 
  e|------- ------- ------- -------|------- ------- ------- -------|
  B|-------------------------------|-------------------------------|
  G|2-------2-------2--------------|2-------2---2---2-------2------|
  D|2-------2-------2--------------|2-------2---2---2-------2------|
  A|0-------0-------0--------------|0-------0---0---0-------0------|
  E|0-------0-------0--------------|0-------0---0---0-------0------|  



    B7
  e|------- ------- ------- -------|------- ------- ------- -------|
  B|-------------------------------|-------------------------------|
  G|-------------------------------|-------------------------------|
  D|-------------------------------|-------------------------------|
  A|2------------------------------|2------------------------------|
  E|----------------2--------------|----------------2--------------|
    
  e|------- ------- ------- -------|------- ------- ------- -------|
  B|-------------------------------|-------------------------------|
  G|2-------2---2---2-------2---2--|2-------2-------2-------2------|
  D|1-------1---1---1-------1---1--|1-------1-------1-------1------|
  A|2-------2---2---2-------2---2--|2-------2-------2-------2------|
  E|-------------------------------|-------------------------------|
    climb   upon        old         Becky's     back    and let's
  e|------- ------- ------- -------|------- ------- ------- -------|
  B|-------------------------------|-------------------------------|
  G|4-------4---4---4-------4------|4-------4---4---4-------4------|
  D|4-------4---4---4-------4------|4-------4---4---4-------4------|
  A|2-------2---2---2-------2------|2-------2---2---2-------2------|
  E|2-------2---2---2-------2------|2-------2---2---2-------2------|



                                    E
  e|------- ------- ------- -------|------- ------- ------- -------|
  B|-------------------------------|-------------------------------|
  G|-------------------------------|-------------------------------|
  D|-------------------------------|-------------------------------|
  A|2------------------------------|----------------0-H-2----------|
  E|----------------2--------------|0------------------------------|
                                    
  e|------- ------- ------- -------|------- ------- ------- -------|
  B|-------------------------------|-------------------------------|
  G|2-------2---------------2------|1-------1---1-------1---1------|
  D|1-------1---------------1------|2-------2---2-------2---2------|
  A|2-------2---------------2------|2-------2---2-------2---2------|
  E|-------------------------------|-------------------------------|
    ride    to  the picture         show.
  e|------- ------- ------- -------|------- ------- ------- -------|
  B|-------------------------------|-------------------------------|
  G|4-------4---4---4-------4------|-------------------------------|
  D|4-------4---4---4-------4------|2-----------2---2--------------|
  A|2-------2---2---2-------2------|2-----------2---2--------------|
  E|2-------2---2---2-------2------|0-----------0---0--------------|




  e|------- ------- ------- -------|------- ------- ------- -------|
  B|-------------------------------|-------------------------------|
  G|-------------------------------|-------------------------------|
  D|-------------------------------|-------------------------------|
  A|----------------0-H-2----------|----------------0-H-2----------|
  E|0------------------------------|0------------------------------|

  e|------- ------- ------- -------|------- ------- ------- -------|
  B|-------------------------------|-------------------------------|
  G|1-------1---1-------1---1---1--|--------1---1-----------1------|
  D|2-------2---2-------2---2---2--|--------2---2-----------2------|
  A|2-------2---2-------2---2---2--|--------2---2-----------2------|
  E|-------------------------------|-------------------------------|
                                                            I   only
  e|------- ------- ------- -------|------- ------- ------- -------|
  B|-------------------------------|-------------------------------|
  G|-------------------------------|-------------------------------|
  D|2---2---2-------2-------2------|2-----------2---2--------------|
  A|2---2---2-------2-------2------|2-----------2---2--------------|
  E|0---0---0-------0-------0------|0-----------0---0--------------|




    00:24

           see her once a week 
    And it's when my work is through.
    I break new ground the whole week long 
    But my mind's set straight on you.
    And I polished up my old horse Beck, 
    And she looks good, I know.
    So climb upon old Becky's back 
    And let's ride to the picture show.

    00:43
    
    Now won't you let me take you to the show 
    So I can hold your hand.
    Oh, it ain't that I don't like your house, 
    It's just that doggone man
    And that double barrel behind the door 
    That waits for me, I know.
    So climb upon old Becky's back 
    And let's ride to the picture show.



    01:03
    A                           G
  e|5------ ------- 5------ ----3--|
  B|7---------------7-----------3--|
  G|7---------------7-----------0--|
  D|7---------------7-----------0--|
  A|5---------------5-----------2--|
  E|5---------------5-----------3--|

  e|2------ ------- 2------ -------|
  B|3---------------3--------------|
  G|2---------------2--------------|
  D|0---------------0--------------|
  A|-------------------------------|
  E|-------------------------------|


    SOLO
    01:04
    G
  e|------- ------- ------- -------|------- ------- ------- -------| 
  B|-------------------------------|-------------------------------|
  G|-------------------------------|-------------------------------|
  D|-------------------------------|-------------------------------|
  A|----------------2--------------|----------------2--------------|
  E|3------------------------------|3------------------------------|

  e|------- ------- ------- -------|------- ------- ------- -------|
  B|-------------------------------|-------------------------------|
  G|0-------0-------0-------0------|0-------0---0---0-------0---0--|
  D|0-------0-------0-------0------|0-------0---0---0-------0---0--|
  A|2-------2-------2-------2------|2-------2---2---2-------2---2--|
  E|3-------3-------3-------3------|3-------3---3---3-------3---3--|

  e|------- 3------ ------- -------|------- ------- ------- -------|
  B|--------------------3----------|6P5P3-------3------------------|
  G|-------------------------------|--------------------4-------0--|
  D|-------------------------------|-------------------------------|
  A|-------------------------------|-------------------------------|
  E|-------------------------------|-------------------------------|



    C
  e|------- ------- ------- -------|------- ------- ------- -------|
  B|-------------------------------|-------------------------------|
  G|-------------------------------|-------------------------------|
  D|-------------------------------|-------------------------------|
  A|3-----------------------3------|3-----------------------3------|
  E|----------------3--------------|----------------3--------------|

  e|------- ------- ------- -------|------- ------- ------- -------|
  B|-------------------------------|-------------------------------|
  G|0-------0-------0-------0------|0-------0-------0-------0------|
  D|2-------2-------2-------2------|2-------2-------2-------2------|
  A|3-------3-------3-------3------|3-------3-------3-------3------|
  E|-------------------------------|-------------------------------|

  e|------- ------- ------- ----3--|------- ------- ------- -------|
  B|--------3H5-----------------5-P|3-------------------3----------|
  G|-------------------------------|------------3-----------0------|
  D|-------------------------------|-------------------------------|
  A|-------------------------------|-------------------------------|
  E|-------------------------------|-------------------------------|



    D
  e|------- ------- ------- -------|------- ------- ------- -------|
  B|-------------------------------|-------------------------------|
  G|-------------------------------|-------------------------------|
  D|-------------------------------|-------------------------------|
  A|3/5-----5---5------------------|5-------5---------------5------|
  E|----------------5--------------|----------------5--------------|

  e|------- ------- ------- -------|------- ------- ------- -------|
  B|-------------------------------|-------------------------------|
  G|2-------2---2---2-------2------|2-------2---2-----------2---2--|
  D|0-------0---0---0-------0------|0-------0---0-----------0---0--|
  A|0-------0---0---0-------0------|0-------0---0-----------0---0--|
  E|-------------------------------|-------------------------------|

  e|------- ------- ------- -------|------- ------- ----5-- -------|
  B|--------5H7--------------------|7------------------------------|
  G|--------------------5----------|------------5---------------2--|
  D|-------------------------------|-------------------------------|
  A/5------------------------------|-------------------------------|
  E|-------------------------------|-------------------------------|



                                    G
  e|------- ------- ------- -------|------- ------- ------- -------|
  B|-------------------------------|-------------------------------|
  G|-------------------------------|-------------------------------|
  D|-------------------------------|-------------------------------|
  A|5-------5----------------------|----------------2--------------|
  E|----------------5--------------|3------------------------------|

  e|------- ------- ------- -------|------- ------- ------- -------|
  B|-------------------------------|-------------------------------|  
  G|2-------2-------2-------2---2--|0-------0-------0-------0---0--|
  D|0-------0-------0-------0---0--|0-------0-------0-------0---0--|
  A|0-------0-------0-------0---0--|2-------2-------2-------2---2--|
  E|-------------------------------|3-------3-------3-------3---3--|

  e|------- ------- ------- -------|------- 3------ ------- -------|
  B|--------7----------------------|--------------------x----------|
  G|--------------------5----------|-------------------(3)---------|
  D|------------------------7-\-5--|-------------------------------|
  A|-------------------------------|------------------------5----/-|
  E|-------------------------------|-------------------------------|


    01:13

  e|------- ------- ------- -------|------- ------- ------- -------| 
  B|-------------------------------|-------------------------------|
  G|-------------------------------|-------------------------------|
  D|-------------------------------|-------------------------------|
  A|----------------2--------------|----------------2--------------|
  E|3------------------------------|3------------------------------|

  e|------- ------- ------- -------|------- ------- ------- -------|
  B|-------------------------------|-------------------------------|
  G|0-------0---------------0------|--------0---------------0------|
  D|0-------0---------------0------|--------0---------------0------|
  A|2-------2---------------2------|--------2---------------2------|
  E|3-------3---------------3------|--------3---------------3------|
    Doooo       doooo               Dooo       dooo     dooo
  e|------- 10----- ------- -------|10----- ----10- ------- -------|
  B|-------------------------------|10----------10------x----------|
  G|--------------------0----------|-------------------(8)---------|
  D|------------------------0------|-------------------------------|
  A|10-----------------------------|------------------------0------|
  E|-------------------------------|-------------------------------|



    C
  e|------- ------- ------- -------|------- ------- ------- -------|
  B|-------------------------------|-------------------------------|
  G|-------------------------------|-------------------------------|
  D|-------------------------------|-------------------------------|
  A|3------------------------------|3------------------------------|
  E|----------------3--------------|----------------3--------------|

  e|------- ------- ------- -------|------- ------- ------- -------|
  B|-------------------------------|-------------------------------|
  G|0-------0---------------0---0--|0-------0-------0-------0------|
  D|2-------2---------------2---2--|2-------2-------2-------2------|
  A|3-------3---------------3---3--|3-------3-------3-------3------|
  E|-------------------------------|-------------------------------|
    dooo
  e|------- 3------ ------- -------|------- ----3-- ------- -------|   
  B|--------------------3----------|5-------------------3----------|
  G|-------------------------------|-------------------------------|
  D|--------5----------------------|--------5---------------5-/-7--|
  A|3------------------------------|3------------------------------|
  E|----------------3--------------|----------------3--------------|



    D
  e|------- ------- ------- -------|------- ------- ------- -------|
  B|-------------------------------|-------------------------------|
  G|-------------------------------|-------------------------------|
  D|-------------------------------|-------------------------------|
  A|5-------5-------5--------------|5-------5-------5--------------|
  E|------------------------5------|-------------------------------|

  e|------- ------- ------- -------|------- ------- ------- -------|
  B|-------------------------------|-------------------------------|
  G|2-------2---2---2-------2---2--|2-------2---2---2-------2------|
  D|0-------0---0---0-------0---0--|0-------0---0---0-------0------|
  A|0-------0---0---0-------0---0--|0-------0---0---0-------0------|
  E|-------------------------------|-------------------------------|
    Doooo       doooo               Dooo        dooo
  e|------- ------- ------- -------|5------ ------- ----5-- -------|
  B|--------7----------------------|------------7------------------|
  G|--------------------5----------|-------------------------------|
  D|-------------------------------|------------------------7---7--|
  A|5------------------------------|-------------------------------|
  E|-------------------------------|-------------------------------|



                                    G
  e|------- ------- ------- -------|------- ------- ------- -------|
  B|-------------------------------|-------------------------------|
  G|-------------------------------|-------------------------------|
  D|-------------------------------|-------------------------------|
  A|5---------------5--------------|----------------2-------0------|
  E|-------------------------------|3------------------------------|

  e|------- ------- ------- -------|------- ------- ------- -------|
  B|-------------------------------|-------------------------------|
  G|2-------2-------2-------2---2--|0-------0-------0-------0------|
  D|0-------0-------0-------0---0--|0-------0-------0-------0------|
  A|0-------0-------0-------0---0--|2-------2-------2-------2------|
  E|-------------------------------|3-------3-------3-------3------|
    Dooooo  dooooo  dooo    dooo    dooo     
  e|------- ------- ------- -------|------- 3------ ------- -------|
  B|--------3-H-5------------------|--------------------3-H-5------|
  G|---------------------5---------|--------------------4----------|
  D|------------------------7-\-5--|-------------------------------|
  A|-------------------------------|-------------------------------|
  E|-------------------------------|-------------------------------|




  e|------- ------- ------- -------|
  B|-------------------------------|
  G|-------------------------------|
  D|-------------------------------|
  A|----------------2--------------|
  E|3-------3----------------------|

  e|------- ------- ------- -------|
  B|-------------------------------|
  G|0-------0---0---0-------0---0--|
  D|0-------0---0---0-------0---0--|
  A|2-------2---2---2-------2---2--|
  E|3-------3---3---3-------3---3--|

  e|3------ ------- ------- -------|
  B|3-----------3-H-6--------------| 
  G|------------4-----------0------|
  D|-------------------------------|
  A|-------------------------------|
  E|-------------------------------|
                        Well, I 


    01:22  
                
    break new ground all week long 
    With my mind set straight on you.
    And every time I try to smile, 
    My heart it breaks in two.
    I slick myself for Saturday night 
    Cause there's one thing I know,
    I'm gonna take my Maggie dear 
    To the Western picture show.

    Now won't you ...



    01:42
    G
  e|------- ------- ------- -------|------- ------- ------- -------| 
  B|-------------------------------|-------------------------------|
  G|-------------------------------|-------------------------------|
  D|-------------------------------|-------------------------------|
  A|----------------2--------------|----------------2--------------|
  E|3------------------------------|3------------------------------|

  e|------- ------- ------- -------|------- ------- ------- -------|
  B|-------------------------------|-------------------------------|
  G|0-------0---------------0------|0-------0---------------0------|
  D|0-------0---------------0------|0-------0---------------0------|
  A|2-------2---------------2------|2-------2---------------2------|
  E|3-------3---------------3------|3-------3---------------3------|
    let     me      take    you     to      the show        so  I
  e|------- ------- ------- -------|------- ------- ------- -------|
  B|-------------------------------|-------------------------------|
  G|-------------------------------|-------------------------------|
  D|------------5---5-------5------|5-------5---5-----------5------|
  A|------------5---5-------5------|5-------5---5-----------5------|
  E|------------3---3-------3------|3-------3---3-----------3------|



    C
  e|------- ------- ------- -------|------- ------- ------- -------|
  B|-------------------------------|-------------------------------|
  G|-------------------------------|-------------------------------|
  D|-------------------------------|-------------------------------|
  A|3------------------------------|3-------2-------3-------4------|
  E|----------------3--------------|-------------------------------|

  e|------- ------- ------- -------|------- ------- ------- -------|
  B|-------------------------------|-------------------------------|
  G|0-------0-------0-------0------|0-------0---0---0-------0------|
  D|2-------2-------2-------2------|2-------2---2---2-------2------|
  A|3-------3-------3-------3------|3-------3---3---3-------3------|
  E|-------------------------------|-------------------------------|
            can     hold    your    hand                    and it                                 
  e|------- ------- ------- -------|------- ------- ------- -------|
  B|-------------------------------|-------------------------------|
  G|--------5---5---5-------5------|--------5---5---5-------5------|
  D|--------5---5---5-------5------|--------5---5---5-------5------|
  A|--------3---3---3-------3------|--------3---3---3-------3------|
  E|-------------------------------|-------------------------------|



    D5
  e|------- ------- ------- -------|------- ------- ------- -------|
  B|-------------------------------|-------------------------------|
  G|-------------------------------|-------------------------------|
  D|-------------------------------|-------------------------------|
  A|5------------------------------|5------------------------------|
  E|----------------5--------------|----------------5--------------|

  e|------- ------- ------- -------|------- ------- ------- -------|
  B|-------------------------------|-------------------------------|
  G|2-------2---2---2-------2------|2-------2---2---2-------2---2--|
  D|0-------0---0---0-------0------|0-------0---0---0-------0---0--|
  A|0-------0---0---0-------0------|0-------0---0---0-------0---0--|
  E|-------------------------------|-------------------------------|
     ain't  that            don't   like    your            It's 
                I                               house,
  e|------- ------- ------- -------|------- ------- ------- -------|
  B|-------------------------------|-------------------------------|
  G|7-------7---7---7-------7------|7-------7---7---7-------7------|
  D|7-------7---7---7-------7------|7-------7---7---7-------7------|
  A|5-------5---5---5-------5------|5-------5---5---5-------5------|
  E|-------------------------------|-------------------------------|



                                    G
  e|------- ------- ------- -------|------- ------- ------- -------|
  B|-------------------------------|-------------------------------|
  G|-------------------------------|-------------------------------|
  D|-------------------------------|-------------------------------|
  A|5------------------------------|--------2-------2--------------|
  E|----------------5--------------|3------------------------------|

  e|------- ------- ------- -------|------- ------- ------- -------|
  B|-------------------------------|-------------------------------|
  G|2-------2---2---2-------2------|0-------0-------0-------0---0--|
  D|0-------0---0---0-------0------|0-------0-------0-------0---0--|
  A|0-------0---0---0-------0------|2-------2-------2-------2---2--|
  E|-------------------------------|3-------3-------3-------3---3--|
    just    that    doggone     man                     And that
  e|------- ------- ------- -------|------- ------- ------- -------|
  B|-------------------------------|-------------------------------|
  G|7-------7---7---7-------7------|-------------------------------|
  D|7-------7---7---7-------7------|--------5---5---5-------5---5--|
  A|5-------5---5---5-------5------|--------5---5---5-------5---5--|
  E|-------------------------------|--------3---3---3-------3---3--|


    01:50

  e|------- ------- ------- -------|------- ------- ------- -------|
  B|-------------------------------|-------------------------------|
  G|-------------------------------|-------------------------------|
  D|-------------------------------|-------------------------------|
  A|--------2-------2--------------|----------------2--------------|
  E|3------------------------------|3------------------------------|

  e|------- ------- ------- -------|------- ------- ------- -------|
  B|-------------------------------|-------------------------------|
  G|0-------0-------0-------0------|0-------0-------0-------0------|
  D|0-------0-------0-------0------|0-------0-------0-------0------|
  A|2-------2-------2-------2------|2-------2-------2-------2------|
  E|3-------3-------3-------3------|3-------3-------3-------3------|
    double      barrel      behind          the door        that 
  e|------- ------- ------- -------|------- ------- ------- -------|
  B|-------------------------------|-------------------------------|
  G|-------------------------------|-------------------------------|
  D|5-------5---------------5------|5-------5---5---5-------5------|
  A|5-------5---------------5------|5-------5---5---5-------5------|
  E|3-------3---------------3------|3-------3---3---3-------3------|



    C
  e|------- ------- ------- -------|------- ------- ------- -------|
  B|-------------------------------|-------------------------------|
  G|-------------------------------|-------------------------------|
  D|-------------------------------|--------2---------------2------|
  A|3------------------------------|3------------------------------|
  E|----------------3--------------|----------------3--------------|

  e|------- ------- ------- -------|------- ------- ------- -------|
  B|-------------------------------|-------------------------------|
  G|0-------0-------0-------0------|0-------0---0---0-------0------|
  D|2-------2-------2-------2------|2-------2---2---2-------2------|
  A|3-------3-------3-------3------|3-------3---3---3-------3------|
  E|-------------------------------|-------------------------------|
    waits   for me,     I       know.                       So 
  e|------- ------- ------- -------|------- ------- ------- -------|
  B|-------------------------------|-------------------------------|
  G|5-------5---5---5--------------|5-------5---5---5-------5------|
  D|5-------5---5---5--------------|5-------5---5---5-------5------|
  A|3-------3---3---3--------------|3-------3---3---3-------3------|
  E|-------------------------------|-------------------------------|



    D
  e|------- ------- ------- -------|------- ------- ------- -------|
  B|-------------------------------|-------------------------------|
  G|-------------------------------|-------------------------------|
  D|--------7---------------7------|--------7---------------7---7--|
  A|5------------------------------|5------------------------------|
  E|----------------5--------------|----------------5--------------|

  e|------- ------- ------- -------|------- ------- ------- -------|
  B|-------------------------------|-------------------------------|
  G|2-------2-------2-------2---2--|2-------2-------2-------2---2--|
  D|0-------0-------0-------0---0--|0-------0-------0-------0---0--|
  A|0-------0-------0-------0---0--|0-------0-------0-------0---0--|
  E|-------------------------------|-------------------------------|
    climb   upon        old         Becky's     back    and let's
  e|------- ------- ------- -------|------- ------- ------- -------|
  B|-------------------------------|-------------------------------|
  G|7-----------7---7-----------7--|7-------7-------7-------7------|
  D|7-----------7---7-----------7--|7-------7-------7-------7------|
  A|5-----------5---5-----------5--|5-------5-------5-------5------|
  E|5-----------5---5-----------5--|5-------5-------5-------5------|




  e|------- ------- ------- -------|------- ------- ------- -------|
  B|-------------------------------|-------------------------------|
  G|-------------------------------|-------------------------------|
  D|--------7---------------7------|--------7---------------7------|
  A|5------------------------------|5------------------------------|
  E|----------------5--------------|----------------5--------------|

  e|------- ------- ------- -------|------- ------- ------- -------|
  B|-------------------------------|-------------------------------|
  G|2-------2---------------2------|2---------------2-------2------|
  D|0-------0---------------0------|0---------------0-------0------|
  A|0-------0---------------0------|0---------------0-------0------|
  E|-------------------------------|-------------------------------|
    ride            to      the     picture         
  e|------- ------- ------- -------|------- ------- ------- -------|
  B|-------------------------------|-------------------------------|
  G|7-------7-------7-----------7--|7-----------7---7-------7---7--|
  D|7-------7-------7-----------7--|7-----------7---7-------7---7--|
  A|5-------5-------5-----------5--|5-----------5---5-------5---5--|
  E|5-------5-------5-----------5--|5-----------5---5-------5---5--|



    G
  e|------- ------- ------- -------|------- ------- ------- -------|
  B|-------------------------------|-------------------------------|
  G|-------------------------------|-------------------------------|
  D|-------------------------------|-------------------------------|
  A|----------------2--------------|----------------3--------------|
  E|3------------------------------|3------------------------------|

  e|------- ------- ------- -------|------- ------- ------- -------|
  B|-------------------------------|-------------------------------|
  G|0-------0-------0-------0---0--|0-------0-------0-------0---0--|
  D|0-------0-------0-------0---0--|0-------0-------0-------0---0--|
  A|2-------2-------2-------2---2--|2-------2-------2-------2---2--|
  E|3-------3-------3-------3---3--|3-------3-------3-------3---3--|
    show.
  e|------- ------- ------- -------|------- ------- ------- -------|
  B|-------------------------------|-------------------------------|
  G|-------------------------------|----------------5-------5---5--|
  D|5---------------5-------5---5--|5---------------5-------5---5--|
  A|5---------------5-------5---5--|5---------------3-------3---3--|
  E|3---------------3-------3---3--|3------------------------------|

  e|------- ------- ------- -------|------- ------- ------- -------|
  B|-------------------------------|-------------------------------|
  G|------------0---------------0--|--------0---0---------------0--|
  D|----------------0--------------|0---------------0-H-2----------|
  A|----------------0-H-2----------|-------------------------------|
  E|3------------------------------|-------------------------------|


                                   (.

  e|------- ------- ------- -------|------- ------- ------- -------|
  B|-------------------------------|-------------------------------|
  G|-------------------------------|-------------------------------|
  D|-------------------------------|5------------------------------|
  A|----------------5--------------|-------------------------------|
  E|3------------------------------|-------------------------------|

  e|------- ------- ------- -------|------- ------- ------- -------|
  B|-------------------------------|-------------------------------|
  G|0-------0-------0-------0------|0------------------------------|
  D|0-------0-------0-------0------|0------------------------------|
  A|2-------2-------2-------2------|2------------------------------|
  E|3-------3-------3-------3------|3------------------------------|

  e|------- ------- ------- -------|------- ------- ------- -------|
  B|-------------------------------|-------------------------------|
  G|-------------------------------|-------------------------------|
  D|5-------5-------5-------5------|5------------------------------|
  A|5-------5-------5-------5------|5------------------------------|
  E|3-------3-------3-------3------|3------------------------------|

  e|------- ------- ------- ----3--|3------ ------- ------- -------|
  B|----------------------------3--|3------------------------------|
  G|------------0---------------0--|0------------------------------|
  D|0---------------0--------------|0------------------------------|
  A|----------------0-H-2----------|2------------------------------|
  E|-------------------------------|3------------------------------|








        B  Bend
        R  Release
        /  Slide up
        \  Slide down
        H  Hammer-on
        P  Pull-off
        ~  Vibrato
        +  Harmonic
        x  Mute note
        .  Play note like a dot in standard notation
        ^  Ties two notes together
        (. Pause




            
            
Suggest correction
Creating personal tab
Creating personal tab
You can edit any tab online and save it as your Personal.

You can edit, replace or remove any tab part or add personal notes – all changes will be seen only by you.

Personal tabs can be accessed anytime from any device, even offline.
Learn more »
Give kudos to tab author, rate the tab!
1 2 3 4 5
comments
print report bad tab
guest
You may want to rate the tab now too:
select rating
Wanna post a correction for this tab? Suggest correction