Oops, an error
Loading. Please wait.

Mull Of Kintyre tab

version 5
version 5

Whole song

Interactive

409 views 9 this week
no commentswrite comment
1 2 3 4 5
2 more votes to show rating
add to favorites
×
Save as Personal and add changes to this tab that will be seen only by you. Learn more ›
×
You can save this tab as Personal to edit and correct it or add notes. All changes will be seen only by you. Learn more »
launch autoscroll
font size
0
reset
how to read this tab
guitar tuner
edit
Autoscroll
slow
fast
+/-
esc
set tempo
stop
Author
Difficulty
-------------------------------------------------------------------------------
                             Mull of Kintyre - Paul McCartney and Wings
-------------------------------------------------------------------------------
Tabbed by:pladd
E-mail:

Tuning:Standard

e|-----0----0-------------0------0-----------0------0------------0-------0------------------|
B|-----2----2-------------2------2-----------2------2------------2-------2------------------|
G|-----2----2-------------2------2-----------2------2------------2-------2------------------|
D|-----2----2-------------2------2-----------2------2------------2-------2------------------|
A|--0------------------0-----------------0-------------------0------------------------------|
E|------------------------------------------------------------------------------------------|
 
    A                   D                        A                 D                    A
e|--------------------------------------------------------------------------------------------------------|
B|--------------2----2--2----0------0-----------------------2---2--2--0-----0-----------------------------|
G|-----------2----------2-------2--------2-------2-------2--2------2------2-----2---------------4--2------|
D|---2---4--------2-----0-----------0--------4---2---4------2------0--------0--------4--2----4------------|
A|---0----------0--------------------------------0-----------0--------------------------0----------0------|
E|--------------------------------------------------------------------------------------------------------|
   Mull of Kintyre, oh mist rolling in from the sea my desire is always to be here, oh Mull of Kintyre.


     A                                                        D                             A
e|----------------------------------------------------------------5----4-----2---0----------0--5---2---0|
B|--------------------------------------2---------------------7-----------------------3-----------------|
G|--------2------------------------2--------4----2------------------------------------------------------|
D|---2---------4---2---------2--------------------------------0--------------0--------------------------|
A|---0-------------0----4----------0-------------0----2-4-----------------------------------0----------0|
E|------------------------------------------------------------------------------------------------------|
   Far   have  I   traveled  and  much have I   seen.         Dark distant mountains with valleys of green.


    A                                                D                     E          A 
e|-----------------------------------------------------------------------------------------x-|
B|---------------------------------2-------------2---3--2---0------------------------------x-|
G|------2---------------------2-------4---2---4------2----------2------------------4--2----x-|
D|--2-------4-----2------2----------------2----------0----------0---4---2--2---4------2----x-|
A|--0-------------0---4-------0-----------0-------------------------------------------0----x-|
E|-------------------------------------------------------------------------0---------------x-|
   Past painted deserts the  sunset's on fire as he carries me home to the Mull of Kintyre.


    A                   D                        A                 D                    A
e|-----------------------------------------------------------------------------------------------------|
B|--------------2----2--2----0------0-----------------------2---2--2--0-----0--------------------------|
G|-----------2--2-------2-------2--------2-------2-------2--2------2------2-----2-------2-------4--2---|
D|---2---4--------2-----0-----------0--------4---2---4------2------0--------0--------4--2----4-----2---|
A|---0----------0--------------------------------0-----------0--------------------------0----------0---|
E|-----------------------------------------------------------------------------------------------------|
   Mull of Kintyre, oh mist rolling in from the sea my desire is always to be here, oh Mull of Kintyre.


e|-----------------------------------------------------------------------------------------|
B|-----------------------------------------------------------------------------------------|
G|--2-------------------2-----------------------2-----------------2---------------------2--|
D|--2-------------------2-----------------------2-----------------2---------------------2--|
A|--0-------------------0-----------------------0-----------------0---------------------0--|
E|-----------------------------------------------------------------------------------------|

    D                                           D7     G                  D
e|--------------------------------------2--0----------------------------------------------|
B|----------3-----0-----------------3------------3-----0-3--2--0----------------3---0-----|
G|---2----------------2--------2------------------------------------2--0---2-----------2--|
D|---0----------------0---4---------0------------0-2-4---------------------0-----------0--|
A|----------------------------------------------------------------------------------------|
E|-----------------------------------------------------3-------3--------------------------|
   Sweet through the heather like deer in the glen,  carry me back to the days I knew then.

     D                                                G                         A7         D
e|---------------------------------2--0--------0--2---3----2---0------------------------0-----|
B|----------3-----0-------------3---------3------------------------3-----0-----------0------3-|
G|---2----------------2------2-----------------------------------------------2---2------------|
D|---0----------------0--4------0---------0-------------0-----------------0-----------------0-|
A|-------------------------------------------------------------------------------0------------|
E|----------------------------------------------------3------------3--------------------------|
    Nights when we sang like a heavenly choir of the life and the times of the Mull of Kintyre.

    D                     G                       D                 G                     A7         D
e|---------------2----2---2----0------0---------------------2--2----2--0-----0-------------------0------|
B|--------0--3--------------------3-------3---0-------0---3---------------3-----3----0--------0------3--|
G|--2---------------------------------------------2--------------------------------------2-----------2--|
D|--0------------0--------------------------------0---------0----------------------------2-----------0--|
A|----------------0---------------------------------0---------0---------------------------0--------------|
E|------------------------3-----------3-----------------------------3--------3--------------------------|
    Mull of Kintyre, oh mist rolling in from the sea my desire is always to be here, oh Mull of Kintyre.


e|-----------------------------------------------------------------------------------------|
B|--3-------------------3-----------------------3-----------------3---------------------3--|
G|--2-------------------2-----------------------2-----------------2---------------------2--|
D|--0-------------------0-----------------------0-----------------0---------------------0--|
A|--0-------------------0-----------------------0-----------------0---------------------0--|
E|-----------------------------------------------------------------------------------------|


    A              A7                               D                             A
e|----------5--------------------5----9--7----5------------5---------------------------5---------------|
B|--5----------7---5---------5---5------------5------7----------9---7----5---------5--------7--5-------|
G|--6--------------6----6--------6------------6------7-------------------------7-----------------------|
D|--7--------------5-------------7------------5------0--------------0----------------------------------|
A|--0--------------0-------------0------------0------------------------------------0-----------0-------|
E|----------------------------------------------7-9----------------------------------------------------|
    Smiles in the sunshine and tears in the rain    still takes me back t'where my memories remain.

    A           A7                                     D                E         A
e|------5-------------------5--9---7----5------7--9---10-9--7--5----------------4--7---5---|
B|--5-------7---5------5--------------------------------------------7---5---5--------------|
G|--6-----------6--6-----------------------------------------------------------------------|
D|--7-----------5--------------------------------------0-------0---------------------------|
A|--0-----------0-----------0-----------0----------------------------------------------0---|
E|--------------------------------------------------------------------------0--------------|
    Flickering embers grow higher and higher  as they carry me back to the Mull of Kintyre.

     A                  D                        A                 D                    A
e|-----------5--9----9--9----7--5---7----5--------------5--9---9---------------------------------------|
B|---5---7------10------7--------------------7---5---7-----10------2--0-----0--------------------------|
G|---6----------9-------7------------------------6---------9-------2------2-----2---------------4--2---|
D|---7----------11------0-----------0------------7---------11------0--------0--------4--2----4-----2---|
A|---0----------0--------------------------------0---------0----------------------------0----------0---|
E|-----------------------------------------------------------------------------------------------------|
   Mull of Kintyre, oh mist rolling in from the sea my desire is always to be here, oh Mull of Kintyre.

    D                     G                       D                 G                     A7         D
e|---------------2----2---2----0------0---------------------2--2----2--0-----0-------------------0------|
B|--------0--3--------------------3-------3---0-------0---3---------------3-----3----0--------0------3--|
G|--2---------------------------------------------2--------------------------------------2-----------2--|
D|--0------------0--------------------------------0---------0----------------------------2-----------0--|
A|----------------0--------------------------------0---------0---------------------------0--------------|
E|------------------------3-----------3-----------------------------3--------3--------------------------|
    Mull of Kintyre, oh mist rolling in from the sea my desire is always to be here, oh Mull of Kintyre.

                                                                           D-A-D-A-D-A-D......
e|---------------2-----0---2--5--------------------2-----0----2---5-----------------|
B|-------0---3-------------------2-----------0--3--------------------2--------------|
G|---2----------------------------------2-------------------------------------------|
D|---0-----------0-----2----------------0----------0-----2--------------------------|
A|-------------------------------0-------------------------0---------0--------------|
E|----------------------------------------------------------------------------------|
    Mull of Kintyre, Mull of Kintyre.  Mull of Kintyre, Mull of Kintyre.  WHO-WHOOOO......................



e|----------------------------------------------------------------------------------|
B|----------------------------------------------------------------------------------|
G|----------------------------------------------------------------------------------|
D|----------------------------------------------------------------------------------|
A|----------------------------------------------------------------------------------|
E|----------------------------------------------------------------------------------|

************************************

| /   slide up
| \   slide down
| h   hammer-on
| p   pull-off
| ~   vibrato
| +   harmonic
| x   Mute note
| b   Bend
| pb  Pre-bend
| br  Bend release
| pbr Pre-bend release
| brb Bend release bend

************************************

            
            
Suggest correction
Creating personal tab
Creating personal tab
You can edit any tab online and save it as your Personal.

You can edit, replace or remove any tab part or add personal notes – all changes will be seen only by you.

Personal tabs can be accessed anytime from any device, even offline.
Learn more »
Give kudos to tab author, rate the tab!
1 2 3 4 5
comments
print report bad tab
guest
You may want to rate the tab now too:
select rating
Wanna post a correction for this tab? Suggest correction