Oops, an error
Loading. Please wait.

My Valentine solo tab

version 1
version 1

Solo

Whole song

50,298 views 42 this week
5 commentsread comments
1 2 3 4 5
x 15
add to favorites
×
Save as Personal and add changes to this tab that will be seen only by you. Learn more ›
×
You can save this tab as Personal to edit and correct it or add notes. All changes will be seen only by you. Learn more »
launch autoscroll
font size
0
reset
how to read this tab
guitar tuner
edit
Autoscroll
slow
fast
+/-
esc
set tempo
stop
Author
[Solo]

e|------------------|----------|-----------------------------------|
B|--------/10-10-10-|--------8-|--------/10-10-8-8-6-5---------8---|
G|-/5-4-5-----------|-/5-4-5---|-/5-4-5----------------7-5-7/9---9-|
D|------------------|----------|-----------------------------------|
A|------------------|----------|-----------------------------------|
E|------------------|----------|-----------------------------------|

e|---------------------|---------------|---------------------|----------|
B|-13-10/12--8-8h10-10-|-8h10-8--5-5h6-|---5-5h6-5-----------|----------|
G|---------------------|---------------|-7---------7p5-----5-|-\2-4-5-7-|
D|---------------------|---------------|---------------5h7---|----------|
A|---------------------|---------------|---------------------|----------|
E|---------------------|---------------|---------------------|----------|

e|----------------|
B|----------------|
G|-5-4--5-7--10-8-|
D|----------------|
A|----------------|
E|----------------|



************************************

| /  Slide up
| h  Hammer-on
| p  Pull-off
| \  Slide down

************************************

            
            
Suggest correction
Creating personal tab
Creating personal tab
You can edit any tab online and save it as your Personal.

You can edit, replace or remove any tab part or add personal notes – all changes will be seen only by you.

Personal tabs can be accessed anytime from any device, even offline.
Learn more »
comments
print report bad tab
5 comments total. Showing first comments.
+4 reply
santiagovr 10 May 18, 2012 09:18 PM

|----------------|
|----------------|
|-5-4--5-7--10-8-|
|----------------|
|----------------|
|----------------|

the last part sounds better like this :)

0 reply
santiagovr 10 May 18, 2012 09:24 PM

nvm ^ my mistake i apologize

0 reply
BiggBrown28 41 Jul 11, 2012 09:17 AM

Correction on second to last messure.
|-------------|
|-------------|
|----4-5-/7---|
|-/7----------|
|-------------|
|-------------|

guest
You may want to rate the tab now too:
select rating
Wanna post a correction for this tab? Suggest correction