Oops, an error
Loading. Please wait.

Nineteen Hundred And Eighty Five bass

version 1
version 1

Whole song

Interactive

7,413 views 18 this week
no commentswrite comment
1 2 3 4 5
1 last vote to show rating
add to favorites
×
Save as Personal and add changes to this tab that will be seen only by you. Learn more ›
×
You can save this tab as Personal to edit and correct it or add notes. All changes will be seen only by you. Learn more »
launch autoscroll
font size
0
reset
guitar tuner
edit
Autoscroll
slow
fast
+/-
esc
set tempo
stop
Author
     ---------------------------------------------------------------

        PAUL MCCARTNEY & WINGS - NINETEEN HUNDRED AND EIGHTY FIVE
                             Paul McCartney
              From BAND ON THE RUN album. Released on 1973.

     ---------------------------------------------------------------





    Oh no one ever left alive in 1985, will ever do
    She may be right
    She may be fine
    She may get love but she won't get mine
    Cos I got you
    Oh I
    Oh I
    Well I just can't get enough of that sweet stuff
    My little lady gets behind

    Shake it
    Take it don't break it
    Uh, uh, uh, uh

    Oh my mama said the time would come 
    When I would find myself in love with you
    I didn't think
    I never dreamed
    That I would be around to see it all come true
    Whoa I
    Oh I
    Well I just can't get enough of that sweet stuff
    My little lady gets behind
    Yeah

    Oh no one ever left alive in 1985, will ever do
    She may be right
    She may be fine
    She may get love but she won't get mine
    Cos I got you
    Oh I
    Oh I
    Well I just can't get enough of that sweet stuff
    My little lady lets behind

    Band on the run
    Band on the run
    Band on the run, yeah...





     INTRO


  G|---------------------------------|---------------------------------|
  D|---------------------------------|---------------------------------|
  A|---------------------------------|---------------------------------|
  E|---------------------------------|---------------------------------|





  G|---------------------------------|---------------------------------|
  D|---------------------------------|---------------------------------|
  A|---------------------------------|---------------------------------|
  E|---------------------------------|---------------------------------|




     00:09

  G|---------------------------------|---------------------------------|
  D|---------------------------------|---------------------------------|
  A|-6---------------6---------------|-6---------------6---------------|
  E|---------8---6-----------8---6---|---------8---6-----------8-------|





  G|---------------------------------|---------------------------------|
  D|---------------------------------|---------------------------------|
  A|-3---------------3---------------|-3---------------3---------------|
  E|---------3---------------3-------|---------3---------------3-------|





  G|---------------------------------|---------------------------------|
  D|---------------------------------|---------------------------------|
  A|-6---------------6---------------|-6---------------6---------------|
  E|---------8---------------8-------|---------8---6-----------8-------|





  G|---------------------------------|---------------------------------|
  D|---------------------------------|---------------------------------|
  A|-3---------------3---------------|-3---------------3---------------|
  E|---------3---------------3-------|---------3---------------6-------|





  G|---------------------------------|---------------------------------|
  D|---------------------------------|---------------------------------|
  A|---------------------------------|---------------------------------|
  E|-4-----------4-------------------|-4-----------4-----------x-------|





  G|---------------------------------|---------------------------------|
  D|---------------------------------|---------------------------------|
  A|-3-----------3-------------------|-3-----------3-----------3-------|
  E|---------------------------------|---------------------------------|





  G|---------------------------------|---------------------------------|
  D|---------------------------------|---------------------------------|
  A|-3-------3-------3---------------|-3-------3-------3---------------|
  E|-------------------------3---6---|-------------------------3---6---|





  G|---------------------------------|---------------------------------|
  D|---------------------------------|---------------------------------|
  A|-3---------------3---------------|-3---------------3-------5-------|
  E|---------3---6-----------3---6---|---------3-----------------------|
                                                               Oh




     VERSE
     00:42

  G|---------------------------------|---------------------------------|
  D|---------------------------------|---------------------------------|
  A|-6---------------6---------------|-6---------------6---------------|
  E|---------8---------------8---6---|---------8---------------8-------|





  G|---------------------------------|---------------------------------|
  D|---------------------------------|---------------------------------|
  A|-3---------------3---------------|-3---------------3---------------|
  E|---------3---------------3-------|---------3---------------6-------|





  G|---------------------------------|---------------------------------|
  D|---------------------------------|---------------------------------|
  A|-6---------------6---------------|-6---------------6---------------|
  E|---------8---------------8-------|---------8---------------8-------|





  G|---------------------------------|---------------------------------|
  D|---------------------------------|---------------------------------|
  A|-3---------------3---------------|-3---------------3---------------|
  E|---------3---------------3-------|---------3---------------6-------|





  G|---------------------------------|---------------------------------|
  D|---------------------------------|---------------------------------|
  A|---------------------------------|---------------------------------|
  E|-4-------4-------4-------4-------|-4-------4-------4-------4-----6-|





  G|---------------------------------|---------------------------------|
  D|---------------------------------|---------------------------------|
  A|-3---------------3-------3-------|-3-------3-------3---------------|
  E|---------------6---------------6-|---------------6---------3-------|





  G|---------------------------------|---------------------------------|
  D|---------------------------------|---------------------------------|
  A|-3---------------3---------------|-3---------------3---------------|
  E|---------3---------------3-------|---------3---------------3-------|





  G|---------------------------------|---------------------------------|
  D|---------------------------------|---------------------------------|
  A|-3---------------3---------------|-3---------------3---------------|
  E|---------3---------------3---6---|---------3---------------3-------|





     INTERLUDE
     01:15

  G|---------------------------------|---------------------------------|
  D|---------------------------------|---------------------------------|
  A|-3-------------------------------|---------------------------------|
  E|---------------------------------|-6-------------------------------|





  G|---------------------------------|---------------------------------|
  D|---------------------------------|---------------------------------|
  A|---------------------------------|---------------------------------|
  E|-4-------------------------------|-4---------------3-------3-------|





  G|---------------------------------|---------------------------------|
  D|---------------------------------|---------------------------------|
  A|-3-------3-------3-------3-------|---------------------------------|
  E|---------------------------------|-6-------6-------6-------6-------|





  G|---------------------------------|---------------------------------|
  D|---------------------------------|---------------------------------|
  A|---------------------------------|---------------------------------|
  E|-4-------4-------4-------4-------|-4-------4-------3-------3-------|





  G|---------------------------------|---------------------------------|
  D|---------------------------------|---------------------------------|
  A|-3-------3-------3---------------|-3-------3-------3-------3-------|
  E|-------------------------3---6---|---------------------------------|




       01:36

    G|-------------------------------|-------------------------------|
    D|-------------------------------|-------------------------------|
    A|-4-----------------------------|(4)----------------------------|
    E|-------------------------------|-------------------------------|





    G|-------------------------------|-------------------------------|
    D|-6-----------------------------|-------------------------------|
    A|-------------------------------|-------------------------------|
    E|-------------------------------|-------------------------------|





    G|-------------------------------|-------------------------------|
    D|-------------------------------|-------------------------------|
    A|-3-----------------------------|-------------------------------|
    E|-------------------------------|-------------------------------|





    G|-------------------------------|-------------------------------|
    D|-------------------------------|-------------------------------|
    A|-4-----------------------------|-------------------------------|
    E|-------------------------------|-------------------------------|





  G|---------------------------------|---------------------------------|
  D|---------------------------------|---------------------------------|
  A|---------------------------------|---------------------------------|
  E|---------------------------------|---------------------------------|





  G|---------------------------------|---------------------------------|
  D|---------------------------------|---------------------------------|
  A|---------------------------------|-3-------3-------3-------5-------|
  E|---------------------------------|---------------------------------|





     VERSE
     02:02

  G|---------------------------------|---------------------------------|
  D|---------------------------------|---------------------------------|
  A|-6---------------6---------------|-6---------------6---------------|
  E|---------8---6-----------8---6---|---------8---------------8-------|





  G|---------------------------------|---------------------------------|
  D|---------------------------------|---------------------------------|
  A|-3---------------3---------------|-3---------------3---------------|
  E|---------3---------------3-------|---------3---------------6-------|





  G|---------------------------------|---------------------------------|
  D|---------------------------------|---------------------------------|
  A|-6---------------6---------------|-6---------------6---------------|
  E|---------8---------------8---6---|---------8---------------8-------|





  G|---------------------------------|---------------------------------|
  D|---------------------------------|---------------------------------|
  A|-3---------------3---------------|-3---------------3---------------|
  E|---------3---------------3-------|---------3---------------6-------|





  G|---------------------------------|---------------------------------|
  D|---------------------------------|---------------------------------|
  A|---------------------------------|---------------------------------|
  E|-4-----------4-------------------|-4-----------4-----------4-------|





  G|---------------------------------|---------------------------------|
  D|---------------------------------|---------------------------------|
  A|-3-----------3---3---------------|-3---3-------3---3---------------|
  E|---------------------------------|-------------------------3-------|





  G|---------------------------------|---------------------------------|
  D|---------------------------------|---------------------------------|
  A|-3---------------3---------------|-3---------------3---------------|
  E|---------3---------------3---6---|---------3---------------3-------|





  G|---------------------------------|---------------------------------|
  D|---------------------------------|---------------------------------|
  A|-3---------------3---------------|-3---------------3---------------|
  E|---------3---------------3---6---|---------3---------------3-------|





       INTERLUDE
       02:36

    G|-------------------------------|-------------------------------|
    D|-------------------------------|-------------------------------|
    A|-4-----------------------------|-------------------------------|
    E|-------------------------------|-------------------------------|





    G|-------------------------------|-------------------------------|
    D|-------------------------------|-------------------------------|
    A|-------------------------------|-----------------------4---6---|
    E|-4-----------------------------|-------------------------------|





    G|-------------------------------|-------------------------------|
    D|-------------------------------|-------------------------------|
    A|-3-----------------------------|-------------------------------|
    E|-------------------------------|-------------------------------|





    G|-------------------------------|-------------------------------|
    D|-------------------------------|-------------------------------|
    A|-4-----------------------------|-------------------------------|
    E|-------------------------------|-------------------------------|





  G|---------------------------------|---------------------------------|
  D|---------------------------------|---------------------------------|
  A|---------------------------------|---------------------------------|
  E|---------------------------------|---------------------------------|





  G|---------------------------------|---------------------------------|
  D|---------------------------------|---------------------------------|
  A|---------------------------------|-3-------3-------3---------------|
  E|---------------------------------|-------------------------6-------|





     VERSE
     03:01

  G|---------------------------------|---------------------------------|
  D|---------------------------------|---------------------------------|
  A|-6---------------6---------------|-6---------------6---------------|
  E|---------8---------------8-------|---------8---------------8-------|





  G|---------------------------------|---------------------------------|
  D|---------------------------------|---------------------------------|
  A|-3---------------3---------------|-3---------------3---------------|
  E|---------3---------------3-------|---------3---------------6-------|





  G|---------------------------------|---------------------------------|
  D|---------------------------------|---------------------------------|
  A|-6---------------6---------------|-6---------------6---------------|
  E|---------8---------------8-------|---------8---6-----------8-------|





  G|---------------------------------|---------------------------------|
  D|---------------------------------|---------------------------------|
  A|-3---------------3---------------|-3---------------3---------------|
  E|---------3---------------3---6---|---------3---------------6-------|





  G|---------------------------------|---------------------------------|
  D|---------------------------------|---------------------------------|
  A|---------------------------------|---------------------------------|
  E|-4-----------------------4-------|---------4-------4---4---4-------|





  G|---------------------------------|---------------------------------|
  D|---------------------------------|---------------------------------|
  A|-3---------------3---------------|-3---------------3------/13\-----|
  E|---------------------------------|---------------------------------|





  G|---------------------------------|---------------------------------|
  D|---------------------------------|---------------------------------|
  A|-3---------------3---------------|-3---------------3---------------|
  E|---------3---------------3-------|---------3---------------3-------|





  G|---------------------------------|---------------------------------|
  D|-------------------------3-------|---------------------------------|
  A|-3-------5-------6---------------|-6-------5-------3---------------|
  E|---------------------------------|-------------------------6-------|





     INTERLUDE
     03:34

  G|---------------------------------|---------------------------------|
  D|---------------------------------|---------------------------------|
  A|-3-------------------------------|---------------------------------|
  E|---------------------------------|-6-------------------------------|





  G|---------------------------------|---------------------------------|
  D|---------------------------------|---------------------------------|
  A|---------------------------------|---------------------------------|
  E|-4-------------------------------|-4---------------3---------------|





  G|---------------------------------|---------------------------------|
  D|---------------------------------|---------------------------------|
  A|-3-------3-------3-------3-------|---------------------------------|
  E|---------------------------------|-6-------6-------6-------6-------|





  G|---------------------------------|---------------------------------|
  D|---------------------------------|---------------------------------|
  A|---------------------------------|---------------------------------|
  E|-4-------4-------4-------4-------|-4-------4-------3-------3-------|





  G|---------------------------------|---------------------------------|
  D|---------------------------------|---------------------------------|
  A|-3-------3-------3-------3-------|---------------------------------|
  E|---------------------------------|-6-------6-------6-------6-------|





  G|---------------------------------|---------------------------------|
  D|---------------------------------|---------------------------------|
  A|---------------------------------|---------------------------------|
  E|-4-------4-------4-------4-------|-4-------4-------3-------3-------|





     OUTRO
     03:59

  G|---------------------------------|---------------------------------|
  D|---------------------------------|---------------------------------|
  A|-3-------3-------3-------3-------|---------------------------------|
  E|---------------------------------|-6-------6-------6-------6-------|





  G|---------------------------------|---------------------------------|
  D|---------------------------------|---------------------------------|
  A|---------------------------------|---------------------------------|
  E|-4-------4-------4-------4-------|-4-------4-------3-------3-------|





  G|---------------------------------|---------------------------------|
  D|---------------------------------|---------------------------------|
  A|-3---3---------------------------|---------------------------------|
  E|---------------------------------|-6---6---------------------------|





  G|---------------------------------|---------------------------------|
  D|---------------------------------|-6---------------5---------------|
  A|---------------------------------|---------------------------------|
  E|-4---4---------------------------|---------------------------------|





  G|-5-------5-------5-------5-------|-3-------3-------3-------3-------|
  D|---------------------------------|---------------------------------|
  A|---------------------------------|---------------------------------|
  E|---------------------------------|---------------------------------|





  G|---------------------------------|---------------------------------|
  D|-6-------6-------6-------6-------|-6-------6-------5-------5-------|
  A|---------------------------------|---------------------------------|
  E|---------------------------------|---------------------------------|





  G|-5-------5-------5-------5-------|-3-------3-------3-------3-------|
  D|---------------------------------|---------------------------------|
  A|---------------------------------|---------------------------------|
  E|---------------------------------|---------------------------------|





  G|---------------------------------|---------------------------------|
  D|-6-------6-------6-------6-------|-6-------6-------5-------5-------|
  A|---------------------------------|---------------------------------|
  E|---------------------------------|---------------------------------|





  G|---------------------------------|---------------------------------|
  G|-5-------5-------5-------5-------|-3-------3-------3-------3-------|
  D|---------------------------------|---------------------------------|
  A|---------------------------------|---------------------------------|
  E|---------------------------------|---------------------------------|





  G|---------------------------------|---------------------------------|
  D|-6-------6-------6-------6-------|-6-------6-------5-------5-------|
  A|---------------------------------|---------------------------------|
  E|---------------------------------|---------------------------------|





  G|-5-------5-------5-------5-------|-3-------3-------3-------3-------|
  D|---------------------------------|---------------------------------|
  A|---------------------------------|---------------------------------|
  E|---------------------------------|---------------------------------|





  G|---------------------------------|---------------------------------|
  D|-6-------6-------6-------6-------|-6-------6-------5-------5-------|
  A|---------------------------------|---------------------------------|
  E|---------------------------------|---------------------------------|





  G|---------------------------------|---------------------------------|
  D|---------------------------------|---------------------------------|
  A|-3-------3-------3-------3-------|---------------------------------|
  E|---------------------------------|-6-------6-------6-------6-------|





  G|---------------------------------|---------------------------------|
  D|---------------------------------|---------------------------------|
  A|---------------------------------|---------------------------------|
  E|-4-------4-------4-------4-------|-4-------4-------3-------3-------|





  G|---------------------------------|---------------------------------|
  D|---------------------------------|---------------------------------|
  A|-3-------3-------3-------3-------|---------------------------------|
  E|---------------------------------|-6-------6-------6-------6-------|





  G|---------------------------------|---------------------------------|
  D|---------------------------------|---------------------------------|
  A|---------------------------------|---------------------------------|
  E|-4-------4-------4-------4-------|-4-------4-------3-------3-------|





  G|---------------------------------|-5----3----------5---------------|
  D|---------------------------------|-----------5---------------------|
  A|-3----1----------3----1----------|-------------------------3-------|
  E|-----------3---------------3-----|---------------------------------|





  G|---------------------------------|---------------------------------|
  D|---------------------------------|---------------------------------|
  A|---------------------------------|---------------------------------|
  E|---------------------------------|---------------------------------|




     05:13

  G|---------------------------------|---------------------------------|
  D|---------------------------------|---------------------------------|
  A|-3-------------------------------|-3-------------------------------|
  E|-----------------3---3-------3---|-----------------3-----------3---|





  G|---------------------------------|---------------------------------|
  D|---------------------------------|---------------------------------|
  A|-3-----------3-------------------|-3---3-------3-------------------|
  E|-----------------3----------3----|-----------------3---------------|





  G|---------------------------------|---------------------------------|
  D|---------------------------------|---------------------------------|
  A|-3---3---------------------------|-3-----------3-------------------|
  E|-----------------3-----------3---|-----------------3---------------| ....

            
            
Suggest correction
Creating personal tab
Creating personal tab
You can edit any tab online and save it as your Personal.

You can edit, replace or remove any tab part or add personal notes – all changes will be seen only by you.

Personal tabs can be accessed anytime from any device, even offline.
Learn more »
Give kudos to tab author, rate the tab!
1 2 3 4 5
comments
print report bad tab
guest
You may want to rate the tab now too:
select rating
Wanna post a correction for this tab? Suggest correction