Oops, an error
Loading. Please wait.

On My Way To Work tab

1,388 views 3 this week
4 commentsread comments
1 2 3 4 5
x 4
add to favorites
×
Save as Personal and add changes to this tab that will be seen only by you. Learn more ›
×
You can save this tab as Personal to edit and correct it or add notes. All changes will be seen only by you. Learn more »
launch autoscroll
font size
0
reset
how to read this tab
guitar tuner
edit
Autoscroll
slow
fast
+/-
esc
set tempo
stop
Author
Difficulty
Tune: "On My Way To Work"
Artist: Paul McCartney
Album: New [2013]

 G
On my way to work
 C           Em
I rode a big green bus
 Em
I could see everything
  C             G
From the upper deck
 G
People came and went
 C        Em
Smoking cigarettes
 Em
I picked the packets up
  C             G
When the people left

 C               Am
But all the time I thought of you
             F
How far away the future seemed
                  Am
How could I so many dreams?
      C      A7       D
And one of them not come true
 
 G
On my way to work
 C           Em
I bought a magazine
 Em
Inside a pretty girl
 C           G
Who liked to water-ski
 G
She came from chichester
 C       Em 
To study history
 Em
She had removed her clothes
 C            G
For the likes of me

RIFF
e-----------------------------------|
B-------8----------10-8-------------|
G-9-7-9------9-7-9------9-----------|
D--------------------------7--5--2--|
A--------------------------7--5--2--|
E--------------------------5--3--0--|

e-----------------------------------|
B-------8----------10-8-------------|
G-9-7-9------9-7-9------9-----------|
D--------------------------7--5--2--|
A--------------------------7--5--2--|
E--------------------------5--3--0--|

e----------|
B-------8--|
G-9-7-9----|
D----------|
A----------|
E----------|

 C               Am
But all the time I thought of you
                   F
How would you know that I was there?
                    Am
How could I soul-search everywhere?
   C      A7      D
Without knowing what to do

 G
On my way to work
 C           Em
As I was clocking in
 Em
I could see everything
 C           G
How it came to be
 G
People come and go
 C           Em
Smoking cigarettes
 Em
I pick the packets up
 C              G
When the people leave

 C              Am
But all the time I think of you
               F
How far away the future seems
                 Am
How could I have so many dreams
       C         A7      D
And one of them not come true

 G                C Em
On my way to work

(RIFF)

 C                 Am
But all the time I thought of you
                     F
How would you know that I was there?
                     Am
How could I soul search everywhere?
   C      A7      D
Without knowing what to do

 G                 C Em
On my way to work

e---------------------------|
B-------8----------10-8-----|
G-9-7-9------9-7-9------9---|
D---------------------------|
A---------------------------|
E---------------------------|
         On my way to work

            
            
Suggest correction
Creating personal tab
Creating personal tab
You can edit any tab online and save it as your Personal.

You can edit, replace or remove any tab part or add personal notes – all changes will be seen only by you.

Personal tabs can be accessed anytime from any device, even offline.
Learn more »
comments
print report bad tab
4 comments total. Showing first comments.
0 reply
grindcore64 30 Oct 28, 2013 04:18 AM

Good sound,but:
e-----------------------------------|
B-------8----------10-8-------------|
G-9-7-9--9---9-7-9------9-----------|
D--------------------------7--5--2--|
A--------------------------7--5--2--|
E--------------------------5--3--0--|

0 reply
mateusbeatle 963 Nov 09, 2013 04:38 AM

Thanks for the comments.

In the end of the RIFF you can play anything that you want, since you play the A G E sequence.

0 reply
grindcore64 30 Oct 28, 2013 04:33 AM

And I think in place of F should be alternated Am and Em

guest
You may want to rate the tab now too:
select rating
Wanna post a correction for this tab? Suggest correction